Song name
# A B C D E F G H I J K L M N O P Q R S T U V W X Y Z

Monday Rose - September Girl tab

e-----------------------------------------------3-----[
B--------3------3------2-------2------------------3---[
G------2--2---0---0---2--2---2---2--------------------[     X verses (intro and outro)
D----0--------------2------2--------------------------[
A---------------------------------------2-0-----------[
E-----------3-------------------------------2-3-------[

e-----------------------------------------------------[
B--------3-------3----2-------3-----3-----3------3----[
G------0---0---0-----2--2---0-----0-----0------0------[    X chorus
D------------------2----------------------------------[
A----2-------2----------------------------------------[
E--------------------------3-----3-----3-----3--------[

lyrics:

V1: on the road to 18 in the travellers inn there's a party going on filled with fun
filled with sin
a boy and girl meet their eyes lock in place their eyebrows go up with their smiles on
their face.
two lips find tow others, suddenly it's clear a path has been chosen, bliss is near.
twenty toes are twitching twenty fingers are a tingle the lips melt together,the body is no
longer alone

V2: in the room next door there's an elderly couple, he says " damn those kids ain't
nothing but trouble" "hold on" says his wife "remember our good old days before all we did
was go see operas and plays" we were so in love and it constantly showed, apart for one 
day and we thought we'd explode" with that the man smiled and said "yah i remember" he
pulled his wife in close  and whispered " my September girl "


chorus:
and iiiiiiiiiiiiiiii I remember
and iiiiiiiiiiiiiiiii I remember
and iiiiiiiiiiiiiiii I remember
remember my September girl

V3: 50 years go by those kids are still going strong, they return to the inn where their
love first begun she sleeps on the left side and he takes to the right and in the
middle the bed  there's only memories of that night, threw the thin wall they hear a 
party next door, that there are two young kids and they fall to the floor  , the wife 
thinks of
the past
and how they came to be a couple but the man says damn those kids a'int nothing ,
nothing but trouble

chorus:
and iiiiiiiiiiiiiiii I remember
and iiiiiiiiiiiiiiiii I remember
and iiiiiiiiiiiiiiii I remember
remember my September girl
X2

outro (same as verses)


sorry this is my first tab so if it sucked please don't be mean about it... i tried
.. i couldn't find this song anywhere so i decided to make a tab for it if you would
like to hear the song i found this link ---> http://www.myspace.com/mondayrosemusic
the bands site is http://www.mondayrosemusic.com/fr_home.cfm
and you can buy the song on itunes :D
Tap to rate this tab
# A B C D E F G H I J K L M N O P Q R S T U V W X Y Z