Guitaretab - guitar tabs
Song name
# A B C D E F G H I J K L M N O P Q R S T U V W X Y Z

Monkey Steals The Peach - Guitar Hero tab

amanda palmer (dresden Dolls solo project)
Myspace - http://www.myspace.com/whokilledamandapalmer
Band Website (not solo project) - http://www.dresdendolls.com/main1.htm


Amanda Palmer - Guitar Hero
from the upcoming album 'Who killed Amanda Palmer'


e--------------------------------|
b--------------------------------|
g--------------------------------|
d---5----------------------------|
a---3----------------------------|let ring
E--------------------------------|
  I canít get them up......


         Intro
e----------------------------|
b----------------------------|
g----------------------------|
d---5--5--5--5P3--3--3--3----|
a---3--3--3--3P3--3--3--3----| X4
E----------------------------|

!!!OR!!!!
if you have long fingers play it X2 then play

e---------------------------------------------------|
b---------------------------------------------------|
g---------------------------------------------------|
d---5--5--5--5--6--6--6--6--8--8--8--8--9--9--9--9--|
a---3--3--3--3--3--3--3--3--3--3--3--3--3--3--3--3--|
E---------------------------------------------------|

          Verse

e-----------------------------|
b-----------------------------|
g-----------------------------|
d----5--5--5--5--3--3--3--3---|  X2
a----3--3--3--3--3--3--3--3---|
E-----------------------------|


e-------------------------------------------------------------------------|
b-------------------------------------------------------------------------|
g-------------------------------------------------------------------------|
d---3--3--3--3--6--6--6--5--------------5--5--5--5--3--3--3--3------------|
a---1--1--1--1--6--6--6--6--6--6--6--6--6--6--6--6--5--5--5--5------------|
E---------------------------4--4--4--4------------------------------------|


       Pre-Chorus
[ Tab from: http://www.guitaretab.com/m/monkey-steals-the-peach/148061.html ]
e-----------------------------|
b-----------------------------|
g-----------------------------|
d----5--5--5--5--3--3--3--3---|  X2
a----3--3--3--3--3--3--3--3---|
E-----------------------------|


e---------------------------------------------------------------------|
b---------------------------------------------------------------------|
g---------------------------------------------------------------------|
d---3--3--3--3--6--6--6--5--------------5--5--5--8--------------------|
a---1--1--1--1--6--6--6--6--6--6--6--6--6--6--6--6--6--6--6--6--------|
E---------------------------4--4--4--4--------------4--4--4--4--------|

e----------------------------------------|
b----------------------------------------|
g----------------------------------------|
d------5--5--5--5--5--5--5--5------------|
a------6--6--6--6--5--5--5--5------------|
E----------------------------------------|


      Chorus  (and i could save you bayby,....)
              (Double time for the Woo-hoo's)

e-------------------------------------------------------------------------|
b-------------------------------------------------------------------------|
g--------------------------------------8--8--8--8-------------------------|
d--5--5--5--5--10-10-10-10-8--8--8--8--6--6--6--6-------------------------|
a--3--3--3--3--8--8--8--8--6--6--6--6-------------------------------------|
E-------------------------------------------------------------------------|

    Chorus 2  (your my guitar hero)

e----------------------------------------------------|
b----------------------------------------------------|
g----------------------------------------------------|
d---5--5--5--5--6--6--6--6--5--5--5--5--6--6--6--6---|
a---3--3--3--3--3--3--3--3--3--3--3--3--3--3--3--3---|
E----------------------------------------------------|


e----------------------------------------------------|
b----------------------------------------------------|
g----------------------------------------------------|
d--5--5--5--5--3--3--3--3--1--1--1--1--0--0--0--0----| X2
a--3--3--3--3--3--3--3--3--3--3--3--3--3--3--3--3----|
E----------------------------------------------------|
Related for Guitar Hero tab