Song name
# A B C D E F G H I J K L M N O P Q R S T U V W X Y Z

Mooi Wark - In De Blote Kont tab

Als Er In Een Stuk geen Akkoorden Staan Zijn Die Hetzelfde Als in Een Eerder
Stuk Je Hoort Vanzelf Welk Akkoorden Schema Er Bij De Niet Geakkoneerde Stukken Moeten....Have Fun...Dre

B = B = -X-2-4-4-4-2-
E = E = -0-2-2-1-0-0-
F# = Fis = -2-4-4-3-2-2-
A#5 = Ais vijf (powerchord) = -6-8-8-X-X-X-
G#5 = Gis vijf (powechord) = -4-6-6-X-X-X-
F#5 = Fis vijf (powerchord) = -2-4-4-X-X-X-
E* = E = X-X-6-4-5-4-
F#* = Fis = -X-X-4-3-2-2-
\G# = Gis Bas = -4-X-X-X-X-X-
\A# = Ais Bas = -6-X-X-X-X-X-

--- - Fade Out

Maat: 4/4



Mooi Wark – In de blote kont



Intro: B--- | E--- B--- | B---       | F#--- | 
       B--- | E--- B--- | B--- F#--- | B---  |
       B    | E B       | B          | F#    | 
       B    | E B       | B F#       | B     |     
       B    | B A       |

Solo over Intro: 
e|-----------------------------------|------------------------------------|
B|-----------------------------------|------------------------------------|
G|-8-8-6-------------------6-8-6---6-|-8-8-6-------------------6-8-8-6----|
D|-------9----6-9-6------9-------9---|-------9----6-9-6------9---------9--|
A|---------9--------9--9-------------|---------9--------9--9--------------|
E|-----------------------------------|------------------------------------|

e|-----------------------------------|------------------------------------|
B|-----------------------------------|------------------------------------|
G|-8-8-6-------------------6-8-6---6-|-8-8-6-------------------6-8-8-6----|
D|-------9----6-9-6------9-------9---|-------9----6-9-6------9---------9--|
A|---------9--------9--9-------------|---------9--------9--9--------------|
E|-----------------------------------|------------------------------------|

e|-----------------------------------|------------------------------------|
B|-----------------------------------|------------------------------------|
G|-8-8-6-------------------6-8-6---6-|-8-8-6-------------------6-8-8-6----|
D|-------9----6-9-6------9-------9---|-------9----6-9-6------9---------9--|
A|---------9--------9--9-------------|---------9--------9--9--------------|
E|-----------------------------------|------------------------------------|

e|-----------------------------------|------------------------------------|
B|-----------------------------------|------------------------------------|
G|-8-8-6-------------------6-8-6---6-|-8-8-6-------------------6-8-8-6----|
D|-------9----6-9-6------9-------9---|-------9----6-9-6------9---------9--|
A|---------9--------9--9-------------|---------9--------9--9--------------|
E|-----------------------------------|------------------------------------|

B            E    B                    F#
As ik op de bank zit, languut veur de buis 
 B              E              B
rustig met een pilsje in mien hand, 
               F#         B
de kat is nog lang niet thuus, 

     F#                B           F#             B
en plots dan giet de deur los en sloat de sirene aan
 E         F#             B    A#5  G#5  F#5 E      F#    B      
denk moar niet dat ik er aangst van word, want in de blote kont

    B                       
We zingen, we springen we dansen in het rond,
F#                B            F#         
in de blote kont, in de blote kont.
    B
We heffen het glas omhoog en zetten ‘t aan de mond, 
F#           B          
in de blote kont

Aas ik op mien wark kom, wat heb ik dan misdoan, 
collega’s binnen jaloers op pad 
en ik weet nergens van. 

Na hee doe niet zo roar man en stel joe niet zo aan, 
denk moar niet dak er aangst van word, want in de blote kont.

We zingen, we springen we dansen in het rond,
in de blote kont, in de blote kont.
We heffen het glas omhoog en zetten ‘t aan de mond, 
in de blote kont

Solo Akoorden:
B | E B | B    | F# |
B | E B | B F# | 

Solo:
e|-----------------------------------|------------------------------------|
B|-----------------------------------|------------------------------------|
G|-8-8-6-------------------6-8-6---6-|-8-8-6-------------------6-8-8-6----|
D|-------9----6-9-6------9-------9---|-------9----6-9-6------9---------9--|
A|---------9--------9--9-------------|---------9--------9--9--------------|
E|-----------------------------------|------------------------------------|

e|-----------------------------------|------------------------------------|
B|-----------------------------------|------------------------------------|
G|-8-8-6-------------------6-8-6---6-|-8-8-6-------------------6-8-8-6----|
D|-------9----6-9-6------9-------9---|-------9----6-9-6------9---------9--|
A|---------9--------9--9-------------|---------9--------9--9--------------|
E|-----------------------------------|------------------------------------|

|||| |   |||   |    |||| |   |||   |
B--- B | E*--- E* | B--- B | E*--- E* |

 
B---                     E*---   B---
As alles een beetje tegenzit en niks joe interesseert 
    B---                     F#*---    
en mensen joe roar aanloeren net of eh je niks om leert. 
 B---                             E*---        B---     F#*--- B
Gooi dan een lag om joen mond en durf te zeggen, in de blote kont

    B                       
We zingen, we springen we dansen in het rond,
F#                B            F#         
in de blote kont, in de blote kont.
    B
We heffen het glas omhoog en zetten ‘t aan de mond, 
F#           B          
in de blote kont

We zingen, we springen we dansen in het rond,
in de blote kont, in de blote kont.
We heffen het glas omhoog en zetten ‘t aan de mond, 
in de blote kont

F#           B          
in de blote kont

F#      \G# \A# B---         
in de blote kont

Tap to rate this tab
# A B C D E F G H I J K L M N O P Q R S T U V W X Y Z