Song name
# A B C D E F G H I J K L M N O P Q R S T U V W X Y Z

Moonsorrow - Sankarihauta tab

Help us improve GuitareTab! Take a short survey!
E Standard Tuning

riff A 
|---------------------------------------------------------------------| 
|---------------------------------------------------------------------| 
|---------------------------------------------------------------------| 
|-6-----6-----6--9-------------6-----6-----6--9-----------------------| 
|-4-444-4-444-4--7--9--6-------4-444-4-444-4--7--9--6-----------------| 
|-------------------7--4-------------------------7--4-----------------| 
    xxx   xxx                    xxx   xxx 
 
|---------------------------------------------------------------------| 
|---------------------------------------------------------------------| 
|-2-----2-----2----------------2-----2-----2--------------------------| 
|-2-----2-----2-----9----------2-----2-----2-----9--------------------| 
|-0-000-0-000-0--6--7--9-------0-000-0-000-0--6--7--9-----------------| 
|----------------4-----7----------------------4-----7-----------------| 
    xxx   xxx                    xxx   xxx 
 
riff B 
|---------------------------------------------------------------------| 
|---------------------------------------------------------------------| 
|---------------------------------------------------------------------| 
|-6~----------------6-------------------------------------------------| 
|-4---4--4-6-7--9---4-------------------------------------------------| 
|-----2--2-4-5--7-----------------------------------------------------| 
         x x x 
 
riff Ca 
|---------------------------------------------------------------------| 
|---------------------------------------------------------------------| 
|---------------------------------------------------------------------| 
|-6----4/6-----4/6------4---------------------------------------------| 
|-4-44-2/4--44-2/4--44--2--6------------------------------------------| 
|--------------------------4------------------------------------------| 
 
 riff Cb					(3x) 
|---------------------------------------------------------------------| 
|---------------------------------------------------------------------| 
|---------------------------------------------------------------------| 
|-6----4/6-----4/6------9---------------------------------------------| 
|-4-44-2/4--44-2/4--44--7--9------------------------------------------| 
|--------------------------7------------------------------------------| 
						(1x) 
 
riff Ca 
|---------------------------------------------------------------------| 
|---------------------------------------------------------------------| 
|---------------------------------------------------------------------| 
|-6----4/6-----4/6------4---------------------------------------------| 
|-4-44-2/4--44-2/4--44--2--6------------------------------------------| 
|--------------------------4------------------------------------------| 
 
 riff Cb					(1x) 
|---------------------------------------------------------------------| 
|---------------------------------------------------------------------| 
|---------------------------------------------------------------------| 
|-6----4/6-----4/6------9---------------------------------------------| 
|-4-44-2/4--44-2/4--44--7--9------------------------------------------| 
|--------------------------7------------------------------------------| 
						(1x) 
riff Ca 
|---------------------------------------------------------------------| 
|---------------------------------------------------------------------| 
|---------------------------------------------------------------------| 
|-6----4/6-----4/6------4---------------------------------------------| 
|-4-44-2/4--44-2/4--44--2--6------------------------------------------| 
|--------------------------4------------------------------------------| 
 
 riff Cb					(1x) 
|---------------------------------------------------------------------| 
|---------------------------------------------------------------------| 
|---------------------------------------------------------------------| 
|-6----4/6-----4/6------9---------------------------------------------| 
|-4-44-2/4--44-2/4--44--7--9------------------------------------------| 
|--------------------------7------------------------------------------| 
						(1x) 
riff D (1:04 on cd-track) 
|---------------------------------------------------------------------| 
|---------------------------------------------------------------------| 
|---------------------------------------------------------------------| 
|-6--66-66-------4---2------------------------------------------------| 
|-4--44-44--666--2---2--4---------------------------------------------| 
|-----------444------0--2---------------------------------------------| 
            xxx					(4x) 
riff Ca 
|---------------------------------------------------------------------| 
|---------------------------------------------------------------------| 
|---------------------------------------------------------------------| 
|-6----4/6-----4/6------4---------------------------------------------| 
|-4-44-2/4--44-2/4--44--2--6------------------------------------------| 
|--------------------------4------------------------------------------| 
 
 riff Cb					(1x) 
|---------------------------------------------------------------------| 
|---------------------------------------------------------------------| 
|---------------------------------------------------------------------| 
|-6----4/6-----4/6------9---------------------------------------------| 
|-4-44-2/4--44-2/4--44--7--9------------------------------------------| 
|--------------------------7------------------------------------------| 
						(1x) 
riff Ca 
|---------------------------------------------------------------------| 
|---------------------------------------------------------------------| 
|---------------------------------------------------------------------| 
|-6----4/6-----4/6------4---------------------------------------------| 
|-4-44-2/4--44-2/4--44--2--6------------------------------------------| 
|--------------------------4------------------------------------------| 
 
 riff Cb					(1x) 
|---------------------------------------------------------------------| 
|---------------------------------------------------------------------| 
|---------------------------------------------------------------------| 
|-6----4/6-----4/6------9---------------------------------------------| 
|-4-44-2/4--44-2/4--44--7--9------------------------------------------| 
|--------------------------7------------------------------------------| 
						(1x) 
riff Ca 
|---------------------------------------------------------------------| 
|---------------------------------------------------------------------| 
|---------------------------------------------------------------------| 
|-6----4/6-----4/6------4---------------------------------------------| 
|-4-44-2/4--44-2/4--44--2--6------------------------------------------| 
|--------------------------4------------------------------------------| 
 
 riff Cb					(1x) 
|---------------------------------------------------------------------| 
|---------------------------------------------------------------------| 
|---------------------------------------------------------------------| 
|-6----4/6-----4/6------9---------------------------------------------| 
|-4-44-2/4--44-2/4--44--7--9------------------------------------------| 
|--------------------------7------------------------------------------| 
						(1x) 
riff Ca 
|---------------------------------------------------------------------| 
|---------------------------------------------------------------------| 
|---------------------------------------------------------------------| 
|-6----4/6-----4/6------4---------------------------------------------| 
|-4-44-2/4--44-2/4--44--2--6------------------------------------------| 
|--------------------------4------------------------------------------| 
 
 riff Cb					(1x) 
|---------------------------------------------------------------------| 
|---------------------------------------------------------------------| 
|---------------------------------------------------------------------| 
|-6----4/6-----4/6------9---------------------------------------------| 
|-4-44-2/4--44-2/4--44--7--9------------------------------------------| 
|--------------------------7------------------------------------------| 
						(1x) 
riff E (1.52 on CD-track) 
|---------------------------------------------------------------------| 
|---------------------------------------------------------------------| 
|-6~-8~-9~-11~-13~----------------------------------------------------| 
|---------------------------------------------------------------------| 
|---------------------------------------------------------------------| 
|---------------------------------------------------------------------| 
 
riff F (2.00 on CD-track) 
|---------------------------------------------------------------------| 
|---------------------------------------------------------------------| 
|---------------------------------------------------------------------| 
|-6--4--6-----------9---------6--4--6-----------6---------------------| 
|-4--2--4--6--7--9--7--6------4--2--4--6--7--6--4---------------------| 
|----------4--5--7-----4---------------4--5--4------------------------| 
						(2x) 
riff G (solo) 
|---------7-----------------------------------------------------------| 
|-9-7---9---9-7---9------------------------9--------------------------| 
|-----9---------9---8--6-8-9--8-9-11--9-11----------------------------| 
|---------------------------------------------------------------------| 
|---------------------------------------------------------------------| 
|---------------------------------------------------------------------| 
 
|---------7-----------------------------------------------------------| 
|-9-7---9---9-7---9---------------------------------------------------| 
|-----9---------9---8--6-8-9--8-6-8--6---6----------------------------| 
|--------------------------------------9------------------------------| 
|---------------------------------------------------------------------| 
|---------------------------------------------------------------------| 
 
riff E  
|---------------------------------------------------------------------| 
|---------------------------------------------------------------------| 
|-6~-8~-9~-11~-13~--------6~-8~-9~-11~-13~----------------------------| 
|---------------------------------------------------------------------| 
|---------------------------------------------------------------------| 
|---------------------------------------------------------------------| 
 
riff x 
|---------------------------------------------------------------------| 
|---------------------------------------------------------------------| 
|---------------------------------------------------------------------| 
|-6--9--------------------6-------------------------------------------| 
|-4--7--9---666--4--6-----4--6--4--6--7--9----------------------------| 
|-------7---444--2--4--------4--2--4--5--7----------------------------| 
 
riff Ca 
|---------------------------------------------------------------------| 
|---------------------------------------------------------------------| 
|---------------------------------------------------------------------| 
|-6----4/6-----4/6------4---------------------------------------------| 
|-4-44-2/4--44-2/4--44--2--6------------------------------------------| 
|--------------------------4------------------------------------------| 
 
 riff Cb					(1x) 
|---------------------------------------------------------------------| 
|---------------------------------------------------------------------| 
|---------------------------------------------------------------------| 
|-6----4/6-----4/6------9---------------------------------------------| 
|-4-44-2/4--44-2/4--44--7--9------------------------------------------| 
|--------------------------7------------------------------------------| 
						(1x) 
riff Ca 
|---------------------------------------------------------------------| 
|---------------------------------------------------------------------| 
|---------------------------------------------------------------------| 
|-6----4/6-----4/6------4---------------------------------------------| 
|-4-44-2/4--44-2/4--44--2--6------------------------------------------| 
|--------------------------4------------------------------------------| 
 
 riff Cb					(1x) 
|---------------------------------------------------------------------| 
|---------------------------------------------------------------------| 
|---------------------------------------------------------------------| 
|-6----4/6-----4/6------9---------------------------------------------| 
|-4-44-2/4--44-2/4--44--7--9------------------------------------------| 
|--------------------------7------------------------------------------| 
						(1x) 
riff Ca 
|---------------------------------------------------------------------| 
|---------------------------------------------------------------------| 
|---------------------------------------------------------------------| 
|-6----4/6-----4/6------4---------------------------------------------| 
|-4-44-2/4--44-2/4--44--2--6------------------------------------------| 
|--------------------------4------------------------------------------| 
 
 riff Cb					(1x) 
|---------------------------------------------------------------------| 
|---------------------------------------------------------------------| 
|---------------------------------------------------------------------| 
|-6----4/6-----4/6------9---------------------------------------------| 
|-4-44-2/4--44-2/4--44--7--9------------------------------------------| 
|--------------------------7------------------------------------------| 
						(1x) 
riff Ca 
|---------------------------------------------------------------------| 
|---------------------------------------------------------------------| 
|---------------------------------------------------------------------| 
|-6----4/6-----4/6------4---------------------------------------------| 
|-4-44-2/4--44-2/4--44--2--6------------------------------------------| 
|--------------------------4------------------------------------------| 
 
 riff Cb					(1x) 
|---------------------------------------------------------------------| 
|---------------------------------------------------------------------| 
|---------------------------------------------------------------------| 
|-6----4/6-----4/6------9---------------------------------------------| 
|-4-44-2/4--44-2/4--44--7--9------------------------------------------| 
|--------------------------7------------------------------------------| 
						(1x) 
riff H (solo) (3:30 on CD-track) 
|------------------------------7h-------------------------------------| 
|----9p7h9-----9p7h9----9p7h9-----9-7h9p7h----------------------------| 
|-7h--------7h-------7h--------------------9--------------------------| 
|---------------------------------------------------------------------| 
|---------------------------------------------------------------------| 
|---------------------------------------------------------------------| 
 
|---------------------------------------------------------------------| 
|----9p7h9-----9p7h9--------7-----------------------------------------| 
|-7h--------7h--------6h8h9---9p8--6-------6h8p6----------------------| 
|------------------------------------9-7h9----------------------------| 
|---------------------------------------------------------------------| 
|---------------------------------------------------------------------| 
 
|---------------------------------------------------------------------| 
|----9p7h9-----9p7h9----9p7h9--7--------------------------------------| 
|-9h--------9h-------9h----------9p8h9-6------------------------------| 
|---------------------------------------------------------------------| 
|---------------------------------------------------------------------| 
|---------------------------------------------------------------------| 
						(2x) 
riff I (4:05 on CD-track) 
|---------------------------------------------------------------------| 
|---------------------------------------------------------------------| 
|---------2-----------------2---------2-------------------------------| 
|------4--2--------------4--2---------2-------------------------------| 
|-4-4--2p-0--6\4----4-4--2p-0--6\4-6--0-------------------------------| 
|-2-2--------4\2----2-2--------4\2-4----------------------------------| 
 
|---------------------------------------------------------------------| 
|---------------------------------------------------------------------| 
|---------2-----------------------------------------------------------| 
|------4--2----------6p4---------4-4----------------------------------| 
|-4-4--2p-0--6\4-----4p2--7p6h7--2-2----------------------------------| 
|-2-2--------4\2----------5p4h5---------------------------------------| 
						(4x) 
riff J (4:36 on CD-track) 
|---------------------------------------------------------------------| 
|---------------------------------------------------------------------| 
|---------------------------------------------------------------------| 
|-4----------------------4--------------------------------------------| 
|-2-0-5-4--444-4444-44---2-0-5-4--444-4444-44-------------------------| 
|-----3-2--222-2222-22-------3-2--222-2222-22-------------------------| 
 
|---------------------------------------------------------------------| 
|---------------------------------------------------------------------| 
|---------------------------------------------------------------------| 
|-4----------------------5--------2-----------------------------------| 
|-2-0-5-4--444-4444-44---3--5--4--2-----------------------------------| 
|-----3-2--222-2222-22------3--2--0-----------------------------------| 
						(4x) 
riff Ca 
|---------------------------------------------------------------------| 
|---------------------------------------------------------------------| 
|---------------------------------------------------------------------| 
|-6----4/6-----4/6------4---------------------------------------------| 
|-4-44-2/4--44-2/4--44--2--6------------------------------------------| 
|--------------------------4------------------------------------------| 
						(1x) 
riff F (2.00 on CD-track) 
|---------------------------------------------------------------------| 
|---------------------------------------------------------------------| 
|---------------------------------------------------------------------| 
|-6--4--6-----------9---------6--4--6-----------6---------------------| 
|-4--2--4--6--7--9--7--6------4--2--4--6--7--6--4---------------------| 
|----------4--5--7-----4---------------4--5--4------------------------| 
						(2x) 
riff G (solo) 
|---------7-----------------------------------------------------------| 
|-9-7---9---9-7---9------------------------9--------------------------| 
|-----9---------9---8--6-8-9--8-9-11--9-11----------------------------| 
|---------------------------------------------------------------------| 
|---------------------------------------------------------------------| 
|---------------------------------------------------------------------| 
 
|---------7-----------------------------------------------------------| 
|-9-7---9---9-7---9---------------------------------------------------| 
|-----9---------9---8--6-8-9--8-6-8--6---6----------------------------| 
|--------------------------------------9------------------------------| 
|---------------------------------------------------------------------| 
|---------------------------------------------------------------------| 
 
riff K (5:57 on CD-track) 
|---------------------------------------------------------------------| 
|---------------------------------------------------------------------| 
|-6-8-9---6-8-9---6---------------------------------------------------| 
|---------------------------------------------------------------------| 
|---------------------------------------------------------------------| 
|---------------------------------------------------------------------| 
 
riff E  
|---------------------------------------------------------------------| 
|---------------------------------------------------------------------| 
|-6~-8~-9~-11~-13~----------------------------------------------------| 
|---------------------------------------------------------------------| 
|---------------------------------------------------------------------| 
|---------------------------------------------------------------------| 
 
riff Ca 
|---------------------------------------------------------------------| 
|---------------------------------------------------------------------| 
|---------------------------------------------------------------------| 
|-6----4/6-----4/6------4---------------------------------------------| 
|-4-44-2/4--44-2/4--44--2--6------------------------------------------| 
|--------------------------4------------------------------------------| 
 
 riff Cb					(1x) 
|---------------------------------------------------------------------| 
|---------------------------------------------------------------------| 
|---------------------------------------------------------------------| 
|-6----4/6-----4/6------9---------------------------------------------| 
|-4-44-2/4--44-2/4--44--7--9------------------------------------------| 
|--------------------------7------------------------------------------| 
						(1x) 
riff Ca 
|---------------------------------------------------------------------| 
|---------------------------------------------------------------------| 
|---------------------------------------------------------------------| 
|-6----4/6-----4/6------4---------------------------------------------| 
|-4-44-2/4--44-2/4--44--2--6------------------------------------------| 
|--------------------------4------------------------------------------| 
 
 riff Cb					(1x) 
|---------------------------------------------------------------------| 
|---------------------------------------------------------------------| 
|---------------------------------------------------------------------| 
|-6----4/6-----4/6------9---------------------------------------------| 
|-4-44-2/4--44-2/4--44--7--9------------------------------------------| 
|--------------------------7------------------------------------------| 
						(1x) 
riff Ca 
|---------------------------------------------------------------------| 
|---------------------------------------------------------------------| 
|---------------------------------------------------------------------| 
|-6----4/6-----4/6------4---------------------------------------------| 
|-4-44-2/4--44-2/4--44--2--6------------------------------------------| 
|--------------------------4------------------------------------------| 
 
 riff Cb					(1x) 
|---------------------------------------------------------------------| 
|---------------------------------------------------------------------| 
|---------------------------------------------------------------------| 
|-6----4/6-----4/6------9---------------------------------------------| 
|-4-44-2/4--44-2/4--44--7--9------------------------------------------| 
|--------------------------7------------------------------------------| 
						(1x) 
riff Ca 
|---------------------------------------------------------------------| 
|---------------------------------------------------------------------| 
|---------------------------------------------------------------------| 
|-6----4/6-----4/6------4---------------------------------------------| 
|-4-44-2/4--44-2/4--44--2--6------------------------------------------| 
|--------------------------4------------------------------------------| 
 
 riff Cb					(1x) 
|---------------------------------------------------------------------| 
|---------------------------------------------------------------------| 
|---------------------------------------------------------------------| 
|-6----4/6-----4/6------9---------------------------------------------| 
|-4-44-2/4--44-2/4--44--7--9------------------------------------------| 
|--------------------------7------------------------------------------| 
						(1x) 
riff L (solo) missing (6:27 on CD-track) 
 
riff A 
|---------------------------------------------------------------------| 
|---------------------------------------------------------------------| 
|---------------------------------------------------------------------| 
|-6-----6-----6--9-------------6-----6-----6--9-----------------------| 
|-4-444-4-444-4--7--9--6-------4-444-4-444-4--7--9--6-----------------| 
|-------------------7--4-------------------------7--4-----------------| 
    xxx   xxx                    xxx   xxx 
 
|---------------------------------------------------------------------| 
|---------------------------------------------------------------------| 
|-2-----2-----2----------------2-----2-----2--------------------------| 
|-2-----2-----2-----9----------2-----2-----2-----9--------------------| 
|-0-000-0-000-0--6--7--9-------0-000-0-000-0--6--7--9-----------------| 
|----------------4-----7----------------------4-----7-----------------| 
    xxx   xxx                    xxx   xxx 
 
riff H (solo)  
|------------------------------7h-------------------------------------| 
|----9p7h9-----9p7h9----9p7h9-----9-7h9p7h----------------------------| 
|-7h--------7h-------7h--------------------9--------------------------| 
|---------------------------------------------------------------------| 
|---------------------------------------------------------------------| 
|---------------------------------------------------------------------| 
 
|---------------------------------------------------------------------| 
|----9p7h9-----9p7h9--------7-----------------------------------------| 
|-7h--------7h--------6h8h9---9p8--6-------6h8p6----------------------| 
|------------------------------------9-7h9----------------------------| 
|---------------------------------------------------------------------| 
|---------------------------------------------------------------------| 
 
|---------------------------------------------------------------------| 
|----9p7h9-----9p7h9----9p7h9--7--------------------------------------| 
|-9h--------9h-------9h----------9p8h9-6------------------------------| 
|---------------------------------------------------------------------| 
|---------------------------------------------------------------------| 
|---------------------------------------------------------------------| 
						(2x) 
riff B 
|---------------------------------------------------------------------| 
|---------------------------------------------------------------------| 
|---------------------------------------------------------------------| 
|-6~----------------6-------------------------------------------------| 
|-4---4--4-6-7--9---4-------------------------------------------------| 
|-----2--2-4-5--7-----------------------------------------------------| 
         x x x 
 
riff B 
|---------------------------------------------------------------------| 
|---------------------------------------------------------------------| 
|---------------------------------------------------------------------| 
|-6~----------------6-6-6-6-6-6-6-6-----------------------------------| 
|-4---4--4-6-7--9---4-4-4-4-4-4-4-4-----------------------------------| 
|-----2--2-4-5--7-----------------------------------------------------| 
         x x x 
Related for Sankarihauta tab