Song name
# A B C D E F G H I J K L M N O P Q R S T U V W X Y Z

Morbid Angel - Immortal Rites tab

Tabbed by: THE SANDMAN
Email:ryan5@iamwasted.com

Tuning:Eb



Intro A
|---------------------------------|
|---------------------------------|
|---------------------------------|
|---------5-----------------8--9--|
|---------3---5\4-----------------|
|-1-2-3-----0-3\2-0-0-0-0---6--7--|
  * * *     *     * * * *


Intro B
|---------------------------------|
|---------------------------------|
|---------------------------------|
|-9--8-----------------5----------|
|----------------4/5---3----------|
|-7--6---0-0-0-0-2/3-0-----3-2-1--|
         * * * *     *     * * *


Figure A1
|---------------------------------|
|---------------------------------|
|--------------------------10~-\--|
|---------------------------------|
|----------3\2--------------8~-\--|
|-00000000-1\0-000000000000-------|
  ********     ************


Figure A2
|-----------------------------------|
|-----------------------------------|
|-----------------------10--12--11--|
|-----------------------------------|
|----------3\2-----------8--10---9--|
|-00000000-1\0-00000000-------------|
  ********     ********


Figure A3
|-----------------------------------|
|-----------------------------------|
|-----------------------10/11\10-9--|
|-----------------------------------|
|----------3\2-----------8/-9\-8-7--|
|-00000000-1\0-00000000-------------|
  ********     ********


Fill A
|---------------------------------|
|---------------------------------|
|---------------------------------|
|---------------------------------|
|----------3\2------4--4--4-------|
|-00000000-1\0-0000-2--2--2--222--|
Tap to rate this tab
 
# A B C D E F G H I J K L M N O P Q R S T U V W X Y Z