Song name
# A B C D E F G H I J K L M N O P Q R S T U V W X Y Z

Morgoth - Sold Baptism tab

Morgoth - Sold Baptism

Tuning: D G C F A D

Lead Guitar


Riff A (4x)


|-------------------------------------------------------------|
|-------------------------------------------------------------|
|-------------------------------------------------------------|
|-------------------------------------------------------------|
|-7--10--9--6--8----------------------------------------------|
|-----------------0-0-0-0-0-0-6-0-0-0-9-0-0-0-5-0-0-0-8-0-0-0-|
                  p.m.--------------------------------------|


Riff B (2x)


|-------------------------------------------------------------|
|-------------------------------------------------------------|
|-------------------------------------------------------------|
|-------------------------------------------------------------|
|-1--4--3--0--2~~~--------------------------------------------|
|---------------------0-0-0-0-2-2-2-2-1-1-1-1-3-3-3-3-2-2-2-2-|

|-------------------------------------------------------------|
|-------------------------------------------------------------|
|-------------------------------------------------------------|
|-------------------------------------------------------------|
|-1--4--3--0--2~~~--------------------------------------------|
|---------------------0-0-0-0-2-2-2-2-1-1-1-1-3-3-3-3-4-4-4-4-|
             P.H.

Riff A again 4x


|-----------------|
|-----------------|
|-----------------|
|-----------------|
|-7--10--9--6--8--|
|-----------------|


Riff C (4x)


|-------------------------------------------------------------------------|
|-------------------------------------------------------------------------|
|-------------------------------------------------------------------------|
|-------------------------------------------------------------------------|
|-------------------------------------------------------------------------|
|-0--0--0--0--0--0--0--0--0--0--1--1--2--2--2--2--2--2--2--2--2--2--2--2--|
  p.m.-----------------------------------------------------------------|


|-------------------------------------------------------------------------|
|-------------------------------------------------------------------------|
|-------------------------------------------------------------------------|
|-------------------------------------------------------------------------|
|-------------------------------------------------------------------------|
|-2--2--1--1--1--1--1--1--1--1--2--2--2--2--1--1--1--1--1--1--1--1--1--1--|
  p.m.-----------------------------------------------------------------|


Riff D (2x)


|-------------------------------------------------------------------------|
|-------------------------------------------------------------------------|
|-------------------------------------------------------------------------|
|-2-----------------------------3-----4-----------------------4-----4-----|
|-2-----------------------------3-----4-----------------------4-----4-----|
|-0-----------------------------1-----2-----------------------2-----2-----|


|-------------------------------------------------------------------------|
|-------------------------------------------------------------------------|
|-------------------------------------------------------------------------|
|-4-----3--------------------4-----4-----4-----3-----4-----4-----3--------|
|-4-----3--------------------4-----4-----4-----3-----4-----4-----3--------|
|-2-----1--------------------2-----2-----2-----1-----2-----2-----1--------|
                             p.m---------|           p.m.--|

Riff E (4x)


|-----------------------------------------------------------------|
|-----------------------------------------------------------------|
|-----------------------------------------------------------------|
|-----------------------------------------------------------------|
|-----------------------------------------------------------------|
|-1-1-1-1-1-1-1-1-0-0-0-0-0-0-0-0-3-3-3-3-3-3-3-3-3-3-3-3-3-3-3-3-|


|-----------------------------------------------------------------|
|-----------------------------------------------------------------|
|-----------------------------------------------------------------|
|-----------------------------------------------------------------|
|-----------------------------------------------------------------|
|-6-6-6-6-6-6-6-6-1-1-1-1-5-5-5-5-5-5-5-5-1-1-1-1-4-4-4-4-4-4-4-4-|


F


|-----------------------------------------------------------------|
|-----------------------------------------------------------------|
|-----------------------------------------------------------------|
|-----------------------------------------------------------------|
|-----------------2---------------1---------------2---------------|
|-0---------------------------------------------------------------|


|-----------------------------------------------------------------|
|-----------------------------------------------------------------|
|-----------------------------------------------------------------|
|-----------------------------------------------------------------|
|-----------------3---------------2h3p2h3p2h3p2h3p2h3-------------|
|-1---------------------------------------------------------------|


|-----------------------------------------------------------------|
|-----------------------------------------------------------------|
|-----------------------------------------------------------------|
|-----------------------------------------------------------------|
|-----------------2---------------1h2p1h2p1h2p1h2p1h2-------------|
|-0---------------------------------------------------------------|


|-----------------------------------------------------------------|
|-----------------------------------------------------------------|
|-----------------------------------------------------------------|
|-----------------------------------------------------------------|
|-2---------------3-------5-------6-------5-------3-------5-------|
|-0---------------1-------3-------4-------3-------1-------3-------|


Riff G (4x)

|-------------------------------------------------|
|-------------------------------------------------|
|-------------------------------------------------|
|-------------------------------------------------|
|-------------2-2-2-2-2-2-1-1-1-1-1-1-2-2-2-2-2-2-|
|-0-0-0-0-0-0-------------------------------------|



|-------------------------------------------------|
|-------------------------------------------------|
|-------------------------------------------------|
|-------------------------------------------------|
|-------------2-2-2-2-2-2-1-1-1-1-1-1-3-3-3-3-3-3-|
|-1-1-1-1-1-1-------------------------------------|


|-------------------------------------------------|
|-------------------------------------------------|
|-------------------------------------------------|
|-------------------------------------------------|
|-------------2-2-2-2-2-2-1-1-1-1-1-1-2-2-2-2-2-2-|
|-0-0-0-0-0-0-------------------------------------|


|-------------------------------------------------|
|-------------------------------------------------|
|-------------------------------------------------|
|-------------------------------------------------|
|-------------------------------------------------|
|-0-0-0-0-0-0-1-1-1-3-3-3-4-4-4-3-3-3-1-1-1-3-3-3-|


Riff A:


|------------------------------------------------|
|------------------------------------------------|
|------------------------------------------------|
|-3----------------------------------------------|
|------------------------------------------------|
|----0-0-0-0-0-0-6-0-0-0-9-0-0-0-5-0-0-0-8-0-0-0-|
     p.m.--------------------------------------|


|-------------------------------------------------------------| 3x
|-------------------------------------------------------------|
|-------------------------------------------------------------|
|-------------------------------------------------------------|
|-7--10--9--6--8----------------------------------------------|
|-----------------0-0-0-0-0-0-6-0-0-0-9-0-0-0-5-0-0-0-8-0-0-0-|
                  p.m.--------------------------------------|

Then riff B and riff A
Tap to rate this tab
 
# A B C D E F G H I J K L M N O P Q R S T U V W X Y Z