Song name
# A B C D E F G H I J K L M N O P Q R S T U V W X Y Z

Mormon Tabernacle Choir - If Could Hie To Kolob tab

----------------------------------------------------------------------------
	If Could Hie to Kolob - Mormon Tabernacle Choir
----------------------------------------------------------------------------
Tabbed by:india1992
Email:chriskoller1992@yahoo.com

Arrangement of 'If Could Hie to Kolob' by me:

e|---------------|------------|------------|----------|
B|---------------|------------|-0-0--------|----------|
G|-0----0--------|-0--2--0-2--|-2---2-0----|-----0----|
D|---4--2-2-2-0--|-2--0-------|-2-------2--|-0-----4--|
A|---------------|------------|------------|----------|
E|---------------|------------|------------|-3--------|

e|----------|------------|------------|------------|
B|----------|------------|-0-0--------|------------|
G|-0--------|-0--2--0-2--|-2---2-0----|------------|
D|-2-2-2-0--|-2--0-------|-2-------2--|-2----------|
A|----------|------------|------------|-2----------|
E|----------|------------|------------|-0----------|

e|-----------------|-----------|--------------|---------|
B|-0-1-3--0-0------|----0------|-0--0---------|---------|
G|-----2------2-0--|-2----0-2--|-0-----2-0----|-0--0----|
D|-----------------|-2---------|-----------2--|-0----4--|
A|-----------------|-----------|--------------|---------|
E|-----------------|-----------|--------------|---------|

e|----------------|------------|---------------|--------|
B|----------------|------------|-0--0----------|--------|
G|----------------|-0--2--0-2--|-2-----2-0-----|--------|
D|----------------|-2--0-------|-2----------2--|-2------|
A|-2--2--2-0-2-4--|------------|---------------|-2------|
E|----------------|------------|---------------|-0------|


Tap to rate this tab
# A B C D E F G H I J K L M N O P Q R S T U V W X Y Z