Song name
# A B C D E F G H I J K L M N O P Q R S T U V W X Y Z

Mother Mother - Verbatim tab

Band - Mother Mother (official site: http://mothermothersite.com/)
Song - Verbatim (intro)
Tabbed by josephh
    
E||------------4-----------|------------4-----------|-----------------------|
B||---------6--------------|---------3--------------|-----------4-----------|
G||------5-----------------|------------------------|--------5--------------|
D||--0---------------------|------3-----------------|-----5-----------------|
A||------------------------|------------------------|--3--------------------|
E||------------------------|--3---------------------|-----------------------|

    
-----------------------|------------4-----------|------------4-----------|
-----------4-----------|---------6--------------|---------3--------------|
--------5--------------|------5-----------------|------------------------|
-----5-----------------|--0---------------------|------3-----------------|
-----------------------|------------------------|------------------------|
--4--------------------|------------------------|--3---------------------|

       
-----------------------|--------------------||
-----------4-----------|--4-----------------||
--------5--------------|--5-----------------||
-----5-----------------|--5-----------------||
--3--------------------|--0-----------------||
-----------------------|--------------------||
Tap to rate this tab
# A B C D E F G H I J K L M N O P Q R S T U V W X Y Z