Song name
# A B C D E F G H I J K L M N O P Q R S T U V W X Y Z

Motion City Soundtrack - Disappear tab

intro
E:--------------------------------------------------|
B:--------------------------------------------------|
G:--------------------------------------------------|
D:-3-------3-------3--------3-----3-----------------|
A:-1-------1-------1--------------------------------|
E:--------------------------2-----4-----------------|

verse
E:--------------------------------------------------|
B:--------------------------------------------------|
G:--------------------------------------------------|
D:-3-------3-------3-----3--------------------------| 3x
A:-1------------------------------------------------|
E:---------1-------2-----4--------------------------|

chorus
E:--------------------------------------------------|
B:--------------------------------------------------|
G:---------6-------8-----11-----13------------------|
D:-4-------6-------8-----11-----13------------------| 2x
A:-4-------4-------6-----9------11------------------|
E:-2------------------------------------------------|

solo
E:---------------8---------------6--4---------------|
B:-6--7--6--9-------9-------------------------------|
G:------------8---------6--5--3---------------------|
D:--------------------------------------------------|
A:--------------------------------------------------|
E:--------------------------------------------------|

E:---------------8----------------------------------|
B:-6--7--6--9-------9-------------------------------|
G:------------8---------6--5--3---------------------|
D:--------------------------------6---4--3----------|
A:--------------------------------------------------|
E:--------------------------------------------------|

pre verse
E:--------------------------------------------------|
B:--------------------------------------------------|
G:--6-----------------------------------------------|
D:--6---6-------------------------------------------| 1x
A:--4---6-------------------------------------------|
E:------4-------------------------------------------|

verse
E:--------------------------------------------------|
B:--------------------------------------------------|
G:--------------------------------------------------|
D:-3-------3-------3-----3--------------------------| 3x
A:-1------------------------------------------------|
E:---------1-------2-----4--------------------------|

chorus
E:--------------------------------------------------|
B:--------------------------------------------------|
G:---------6-------8-----11-----13------------------|
D:-4-------6-------8-----11-----13------------------| 4x
A:-4-------4-------6-----9------11------------------|
E:-2------------------------------------------------|

verse
E:--------------------------------------------------|
B:--------------------------------------------------|
G:---8-------8-------8------------------------------|
D:---8---6---8---6---8---6---3---6------------------| 4x
A:---6---6---6---6---6---6---3---6------------------|
E:-------4-------4-------4---1---4------------------|

E:--------------------------------------------------|
B:--------------------------------------------------|
G:--------------------------------------------------|
D:--8---6---4---3-----------------------------------| 2x
A:--8---6---4---3-----------------------------------|
E:--6---4---2---1-----------------------------------|

pre chorus (palm mute) (dont play 11/13/13 2nd time)
E:--------------------------------------------------|
B:--------------------------------------------------|
G:---------6-------8-----11-----13------------------|
D:-4-------6-------8-----11-----13------------------| 2x
A:-4-------4-------6-----9------11------------------|
E:-2------------------------------------------------|

chorus
E:--------------------------------------------------| 
B:--------------------------------------------------|
G:---------6-------8-----11-----13------------------|      
D:-4-------6-------8-----11-----13------------------| 4x
A:-4-------4-------6-----9------11------------------|
E:-2------------------------------------------------|

E:--------------------------------------------------|
B:--------------------------------------------------|
G:----8------ 11-----13-----8-----------------------|
D:----8------ 11-----13-----8-----------------------| 
A:----6-------9-----11-----6-----------------------|
E:-------------------------------------------------|
Tap to rate this tab
 
# A B C D E F G H I J K L M N O P Q R S T U V W X Y Z