Song name
# A B C D E F G H I J K L M N O P Q R S T U V W X Y Z

Motion City Soundtrack - Broken Heart tab

A little bit simpler way to play this song and i think the other tab has a few extra 
that aren't in the song...

Verse [x2]:
e|-----------------------------------------------------------------|
B|-----------------------------------------------------------------|
G|-----------------------------------------------------------------|
D|-----------------------------------------------------------------|
A|-9-9-9-9-9-9-9-9-8-8-8-8-8-8-8-8-6-6-6-6-6-6-6-6-4-4-4-4-4-4-4-4-|
E|-----------------------------------------------------------------|

e|-----------------------------------------------------------------|
B|-----------------------------------------------------------------|
G|-----------------------------------------------------------------|
D|-9-9-9-9-9-9-9-9-8-8-8-8-8-8-8-8-6-6-6-6-6-6-6-6-6-6-6-6-6-6-6-6-|
A|-----------------------------------------------------------------|
E|-----------------------------------------------------------------|

Pre Chorus:
e|-------|
B|-------|
G|-4---6-|
D|-4-4-6-|
A|-2-4-4-|
E|---2---|

Chorus:
e|-------------|
B|-------------|
G|-8-6-4-----4-|
D|-8-6-4-4-2-4-|
A|-6-4-2-4-2-2-|
E|-------2-0---|

Post Chorus:
e|--------------------------------------------------------------------|
B|--------------------------------------------------------------------|
G|---6------8------11-------15-13-11-10-11-----11-11-----11p10-10-----|
D|--------------------------------------------------------------------|
A|-9----9-8----8-6-----6-4------------------14-------13---------------|
E|--------------------------------------------------------------------|

Verse:
e|-----------------------------------------------------------------|
B|-----------------------------------------------------------------|
G|-----------------------------------------------------------------|
D|-----------------------------------------------------------------|
A|-9-9-9-9-9-9-9-9-8-8-8-8-8-8-8-8-6-6-6-6-6-6-6-6-4-4-4-4-4-4-4-4-|
E|-----------------------------------------------------------------|

e|-----------------------------------------------------------------|
B|-----------------------------------------------------------------|
G|-----------------------------------------------------------------|
D|-9-9-9-9-9-9-9-9-8-8-8-8-8-8-8-8-6-6-6-6-6-6-6-6-6-6-6-6-6-6-6-6-|
A|-----------------------------------------------------------------|
E|-----------------------------------------------------------------|

Pre Chorus:
e|-------|
B|-------|
G|-4---6-|
D|-4-4-6-|
A|-2-4-4-|
E|---2---|

Chorus:
e|-------------|
B|-------------|
G|-8-6-4-----4-|
D|-8-6-4-4-2-4-|
A|-6-4-2-4-2-2-|
E|-------2-0---|

Bridge:
e|---------------------------------------------------------------------|
B|----------7h9h11p9p7-----------------------------7h9h11p9p7----------|
G|-9--8--6---------------9--8--11-11b-11--9--8--6-------------9--8-11b-|
D|---------------------------------------------------------------------|
A|---------------------------------------------------------------------|
E|---------------------------------------------------------------------|

Pre Chorus:
e|-------|
B|-------|
G|-4---6-|
D|-4-4-6-|
A|-2-4-4-|
E|---2---|

Chorus:
e|-------------|        e|---|
B|-------------|        B|---|
G|-8-6-4-----4-|        G|-4-|
D|-8-6-4-4-2-4-| End On D|-4-|
A|-6-4-2-4-2-2-|        A|-2-|
E|-------2-0---|        E|---|
Lyrics:
I値l start this broken heart
I値l fix it up so it will work again
Better than before
Then I値l star in a mystery
A tragic tale of all that痴 yet to come
Fingers crossed there will be love

But I get carried away with every day
And every fantasy
the deeper the wound,
the harder i swoon and wish that that was me

So much to say
But no words to convey
The loneliness building with each passing day
But I知 getting used to it, you have to get used to it

I値l devise the best disguise
A brand new look and take them by surprise
They値l never guess what痴 not inside
I値l express myself with ease,
With confidence and character complete
With fingers crossed they値l talk to me

But I get carried away with every page
In every magazine
The cheaper the thrill
the deeper I fill my head with blasphemy

So much to say
But No words to convey
The loneliness building with each passing day
But I知 getting used to it, you have to get used to it

I値l destroy this useless heart
I値l fuck it up so it値l never beat again
Not just for me but for anyone

But I get carried away
with every phrase and made up melody
The longer I hide behind these lies,
The more I disintegrate

So much to say
But no words to convey
The loneliness building with each passing day
But I never get used to it, you just have to live with it
Tap to rate this tab
# A B C D E F G H I J K L M N O P Q R S T U V W X Y Z