Song name
# A B C D E F G H I J K L M N O P Q R S T U V W X Y Z

Motopony - Wait For Me tab

-------------------------------------------------------------------------------
                             Wait for Me - Motopony
-------------------------------------------------------------------------------
From the soundtrack for the movie: The First Time!
If you want it in the original key, tune the strings all a half step down, so that its 
D#G#C#F#A#d#. But sometimes I'm just too lazy to tune everything so I just play it half 
step up basically. For the verses, you just repeat the two lines.
Comment and Rate? :)

Intro x2:

e|-------------------------------------------------------------------|
B|-------------------------------------------------------------------|
G|-------------------------------------------------------------------|
D|---0---0---0---0---0---0---0---0---2---2---2---2---2---2---2---2---|
A|-----2-------2-------2-------2-------3-------3-------3-------3-----|
E|-3-------3-------3-------3-------3-------3-------3-------3---------|


e|-------------------------------------------------------------------|
B|-------------------------------------------------------------------|
G|-------------------------------------------------------------------|
D|---4---4---4---4---4---4---4---4---5---5---5---5---5---5---5---5---|
A|-----5-------5-------5-------5-------5-------5-------5-------5-----|
E|-3-------3-------3-------3-------3-------3-------3-------3---------|

Verse 1 x4:
                 She'll come to me in a dream
e|-------------------------------------------------------------------|
B|-------------------------------------------------------------------|
G|-------------------------------------------------------------------|
D|---0---0---0---0---0---0---0---0---2---2---2---2---2---2---2---2---|
A|-----2-------2-------2-------2-------3-------3-------3-------3-----|
E|-3-------3-------3-------3-------3-------3-------3-------3---------|

                 And I don't even know her name
e|-------------------------------------------------------------------|
B|-------------------------------------------------------------------|
G|-------------------------------------------------------------------|
D|---4---4---4---4---4---4---4---4---5---5---5---5---5---5---5---5---|
A|-----5-------5-------5-------5-------5-------5-------5-------5-----|
E|-3-------3-------3-------3-------3-------3-------3-------3---------|

                 A pretty mark upon her breast
                 To signify her from the rest
                 But her and I are just the same
                 Building bridges out of fame
                 She stands upon a dinner plate
                 And tells me that I'll have to wait

Chorus:
                   Wait    for     me
e|-------------------------------------------------------------------|
B|-------------------------------------------------------------------|
G|-------------------------------------------------------------------|
D|---5---5---5---5---5---5---5---5---5---5---5---5---5---5---5---5---|
A|-----7-------7-------7-------7-------5-------5-------5-------5-----|
E|-3-------3-------3-------3-------3-------3-------3-------3---------|

                   I know it won't be easy
e|-------------------------------------------------------------------|
B|-------------------------------------------------------------------|
G|-------------------------------------------------------------------|
D|---5---5---5---5---5---5---5---5---5---5---5---5---5---5---5---5---|
A|-----7-------7-------7-------7-------5-------5-------5-------5-----|
E|-3-------3-------3-------3-------3-------3-------3-------3---------|

                   What    a       thing                     To beli-
e|-------------------------------------------------------------------|
B|-------------------------------------------------------------------|
G|-------------------------------------------------------------------|
D|---5---5---5---5---5---5---5---5---5---5---5---5---5---5---5---5---|
A|-----7-------7-------7-------7-------5-------5-------5-------5-----|
E|-3-------3-------3-------3-------3-------3-------3-------3---------|

  -eve                                                       In a dream
e|-------------------------------------------------------------------|
B|-------------------------------------------------------------------|
G|-------------------------------------------------------------------|
D|---5---5---5---5---5---5---5---5---5---5---5---5---5---5---5---5---|
A|-----7-------7-------7-------7-------5-------5-------5-------5-----|
E|-3-------3-------3-------3-------3-------3-------3-------3---------|


e|-------------------------------------------------------------------|
B|-------------------------------------------------------------------|
G|-------------------------------------------------------------------|
D|---2---2---2---2---2---2---2---2---2---2---2---2---2---2---2---2---|
A|-----2-------2-------2-------2-------2-------2-------2-------2-----|
E|-3-------3-------3-------3-------3-------3-------3-------3---------|

Verse 2 (play the same as verse 1)
                 Perhaps I knew her long ago
                 I wrote her poems at nine years old
                 But then I did become a man
                 The letter slipped right through my hands
                 Practised all my wit and charm
                 Had many girls on every arm
                 I learned the depths of love and hate
                 But never did learn how to wait

Chorus:
                   Wait    for     you
                   You say it like it's easy to do
                   What    a       thing
                   To beli-eve
                   In a dream

Verse 3 (play the same as verse 1)
                 I hope you know that all my life
                 I have been searching for a wife
                 A partner and a confidant
                 The girl who wants the things I want
                 A girl who doesn't come along
                 Cuz she's already where I'm goin'
                 qI stand upon a broken stage
                 I beg ya darling, please, please wait

Chorus:
                   Wait    for     me
                   I know it won't be easy
                   What    a       thing
                   To beli-eve
                   In a dream

Outro:

I believe                                                    In a dream
e|-------------------------------------------------------------------|
B|-------------------------------------------------------------------|
G|-------------------------------------------------------------------|
D|---5---5---5---5---5---5---5---5---5---5---5---5---5---5---5---5---|
A|-----7-------7-------7-------7-------5-------5-------5-------5-----|
E|-3-------3-------3-------3-------3-------3-------3-------3---------|


e|-------------------------------------------------------------------------|
B|-------------------------------------------------------------------------|
G|-------------------------------------------------------------------------|
D|---2---2---2---2---2---2---2---2---2---2---2---2---2---2---2---2---------|
A|-----2-------2-------2-------2-------2-------2-------2-------2------2--5-|
E|-3-------3-------3-------3-------3-------3-------3-------3-------3-------|
Tap to rate this tab
# A B C D E F G H I J K L M N O P Q R S T U V W X Y Z