Song name
# A B C D E F G H I J K L M N O P Q R S T U V W X Y Z

Motorama - To The South tab

Motorama - To The South 
From the album Calendar (2012).

Chords used:
A  [5-7-7-6-5-5]
Bm [7-9-9-7-7-7]
D  [10-12-12-11-10-10] (Vlad plays it [10-9-7-7-7-x])
Em [x-7-9-9-8-7-7]


INTRO:

A  Bm  (listen to the song for correct rhythm)


   A
e|--------------------------------------------------------------------|
B|------------------------12-12-10-10-----------12-12-10-10-----------|
G|------------------------------------11-11-9-9-------------11-11-9-9-|
D|----9-11-9-----9-11-9-----------------------------------------------|
A|-12---------12------------------------------------------------------|
E|--------------------------------------------------------------------| 

   Bm
e|--------------------------------------------------------------------|
B|------------------------12-12-10-10---------------------------------|
G|------------------------------------11-11-9-9--11--9-11--9--11-9----|
D|----9-11-9-----9-11-9-----------------------------------------------|
A|-12---------12------------------------------------------------------|
E|--------------------------------------------------------------------| 

   A
e|--------------------------------------------------------------------|
B|------------------------12-12-10-10-----------12-12-10-10-----------|
G|------------------------------------11-11-9-9-------------11-11-9-9-|
D|----9-11-9-----9-11-9-----------------------------------------------|
A|-12---------12------------------------------------------------------|
E|--------------------------------------------------------------------| 


   Bm
e|-----------------------------------------|
B|-----------------------------------------|
G|-------------------------------------9---|
D|----9-11-9-----9-11-9----12--12--12------|
A|-12---------12---------------------------|
E|-----------------------------------------| 


VERSE
   A
e|-------------------------------------------------------------|
B|-------------------------------------------------------------|
G|-----------------------------------------------9-9-----------|
D|-11~-----11-9-11-9-11-9-11-9-11-9-11-9-11-9-11------9--11----|
A|-------------------------------------------------------------|
E|-------------------------------------------------------------| 
  "Look outside...."

   Bm
e|--------------------------------------------------------------------------|
B|--------------------------------------------------------------------------|
G|---------------------------------9-------------------------------9-9-9----|
D|-9-11-11-11-11-11-11-11-11-11-11---11-11-11-11-11-11-11-11-11-11------9-11|
A|--------------------------------------------------------------------------|
E|--------------------------------------------------------------------------|
  "We were spending..."


CHORUS

   Em              D               A
e|-------------------------------------------------------------------|
B|---------12--10----------12--10-----------12--10-------------------|
G|-11(12x)---------11(12x)----------11(12x)---------11(7x)-9-9-9--9--|
D|-------------------------------------------------------------------|
A|-------------------------------------------------------------------|
E|-------------------------------------------------------------------| 
  "You will drive..."

   Em              D               A
e|----------------------------------------------------------------------|
B|---------12--10----------12--10-----------12--10----------------------|
G|-11(12x)---------11(12x)----------11(12x)---------11(7x)-9-9-9--9--11~|
D|----------------------------------------------------------------------|
A|----------------------------------------------------------------------|
E|----------------------------------------------------------------------| 
  "Just look..."


INTERLUDE

A  -  drum break


VERSE

   A
e|--------------------------------------------------------------------|
B|------------------------12-12-10-10-----------12-12-10-10-----------|
G|------------------------------------11-11-9-9-------------11-11-9-9-|
D|----9-11-9-----9-11-9-----------------------------------------------|
A|-12---------12------------------------------------------------------|
E|--------------------------------------------------------------------| 
  "You will laugh..."

   Bm
e|--------------------------------------------------------------------|
B|------------------------12-12-10-10---------------------------------|
G|------------------------------------11-11-9-9--11--9-11--9--11-9----|
D|----9-11-9-----9-11-9-----------------------------------------------|
A|-12---------12------------------------------------------------------|
E|--------------------------------------------------------------------|    
  "...but I feel someone"

   A
e|--------------------------------------------------------------------|
B|------------------------12-12-10-10-----------12-12-10-10-----------|
G|------------------------------------11-11-9-9-------------11-11-9-9-|
D|----9-11-9-----9-11-9-----------------------------------------------|
A|-12---------12------------------------------------------------------|
E|--------------------------------------------------------------------| 
  "She's touching my hair..."

   Bm
e|-----------------------------------------|
B|-----------------------------------------|
G|-----------------------------------------|
D|----9-11-9-----9-11-9----9~--------------|
A|-12---------12---------------------------|
E|-----------------------------------------| 
  "I am lying with you"


CHORUS

   Em              D               A
e|-------------------------------------------------------------------|
B|---------12--10----------12--10-----------12--10-------------------|
G|-11(12x)---------11(12x)----------11(12x)---------11(7x)-9-9-9--9--|
D|-------------------------------------------------------------------|
A|-------------------------------------------------------------------|
E|-------------------------------------------------------------------| 
  "You will drive..."

   Em              D               A
e|----------------------------------------------------------------------|
B|---------12--10----------12--10-----------12--10----------------------|
G|-11(12x)---------11(12x)----------11(12x)---------11(7x)-9-9-9--9--11~|
D|----------------------------------------------------------------------|
A|----------------------------------------------------------------------|
E|----------------------------------------------------------------------| 
  "I look at my self..."


OUTRO

   Em              D               A
e|-------------------------------------------------------------------|
B|---------12--10----------12--10-----------12--10-------------------| \
G|-11(12x)---------11(12x)----------11(12x)---------11(7x)-9-9-9--9--|  3x 
D|-------------------------------------------------------------------| /
A|-------------------------------------------------------------------|
E|-------------------------------------------------------------------| 

   Em              D               A
e|----------------------------------------------------------------------|
B|---------12--10----------12--10-----------12--10----------------------| \
G|-11(12x)---------11(12x)----------11(12x)---------11(7x)-9-9-9--9--11~|  1x
D|----------------------------------------------------------------------| /
A|----------------------------------------------------------------------|
E|----------------------------------------------------------------------| 
Tap to rate this tab
# A B C D E F G H I J K L M N O P Q R S T U V W X Y Z