Song name
# A B C D E F G H I J K L M N O P Q R S T U V W X Y Z

Motorhead - Brave New World tab

Intro Riff:

e|------------------------------------------|
B|------------------------------------------|
G|------------------------------------------|
D|--57-7-7-7--------------------------------|
A|--x-x-x-x-x------Play 8x?Then bring wah---|
E|--33-3-3-3--------------------------------|

First Verse Riff:
D|--57-7-7-7--7-7-----------|--57-7-7-7------------------------|Play whole
A|--x-x-x-x-x--x-x?(w/ wah)--|--x-x-x-x-x--7-7-5------- thing--| 2x
E|--33-3-3-3--5-5-----------|--33-3-3-3--5-5-3-----------------|

Pre-Chorus: This is the only riff I can?t match when I play to the song. For this one,
just guess. I do know that it?s something like this:
e|-----------------------------------------|
B|--------5------(8x) or -------7-----(8x)-|
G|----------5---------------------7--------|
D|--0---------------------0----------------|
A|-----------------------------------------|
E|-----------------------------------------|

Chorus:
e|-----------------------------------------------------|
B|-----------------------------------------------------|
G|-----------------------------------------------------|
D|--7--5--2--2-2---7--5--2--5-8-8---7--5--2--2-2-------|
A|--5--3--0--0-0---5--3--0--3-6?6---5--3--0--0-0-------|
E|-----------------------------------------------------|

e|------------------------------------------|
B|------------------------------------------|
G|------------------------------------------|
D|--57-7-7-7----(4x)------------------------|
A|--x-x-x-x-x-------------------------------|
E|--33-3-3-3--------------------------------|

e|-----------------------------------------------------|
B|-----------------------------------------------------|
G|-----------------------------------------------------|
D|--7--5--2--2-2---7--5--2--5-8-8---7--5--2--2-2-------|
A|--5--3--0--0-0---5--3--0--3-6?6---5--3--0--0-0-------|
E|-----------------------------------------------------|

e|--------------------|
B|--------------------|
G|--------------------|
D|-------------(4x)---|
A|--57-7-7-7----------|
E|--35-5-5-5----------|
Tap to rate this tab
# A B C D E F G H I J K L M N O P Q R S T U V W X Y Z