Guitaretab - guitar tabs
Song name
# A B C D E F G H I J K L M N O P Q R S T U V W X Y Z

Motorhead - Killers tab

Intro
e------------------------------------|
B------------------------------------|
G-----35---35---335----35---35-3653--|
D--55-35-5-35-5-335-55-35-5-35-3653--|
A--55----5----5-----55----5----------|
E------------------------------------|

e--------------------------|
B--------------------------|
G--------------------------|
D--77777-77777-77777-7777--|
A--55555-55555-55555-5555--|
E--------------------------|

e------------------------------------|
B------------------------------------|
G-----35---35---335----35---35-3653--|
D--55-35-5-35-5-335-55-35-5-35-3653--|
A--55----5----5-----55----5----------|
E------------------------------------|

e--------------------------|
B--------------------------|
G--------------------------|
D--77777-77777-77777-7777--|
A--55555-55555-55555-5555--|
E--------------------------|
[ Tab from: http://www.guitaretab.com/m/motorhead/154306.html ]
Chorus
e----------------------------|
B----------------------------|
G----------------------------|
D--------------55555-333333--|
A--55555-33333-33333-111111--|
E--33333-11111---------------|

e-----------------------------------------|
B-----------------------------------------|
G-----------------------------------------|
D--------------55555-7777777777777777777--|
A--55555-33333-33333-5555555555555555555--|
E--33333-11111----------------------------|

Backing to solo
e----------------------|
B----------------------|
G----------------------|
D-9999-7777-2222-------|
A-7777-5555-0000-5555--|
E----------------3333--|

If you have the song you should know the order and how many times to play each part, i 
need to write it all out for ya.

Enjoy...

By the way this tab is one hundred percent correct and if you say otherwise i will stab you!
Related for Killers tab
Killers chords by Motorhead