Song name
# A B C D E F G H I J K L M N O P Q R S T U V W X Y Z

Motorhead - We Are The Road Crew tab

Tuneing : Eb ( you can make adjustments so you can play this song in standard tuneing
if you like, but do it yourself!!)

I didn't bother tabbing the solo... waayyy too long, I recomend useing the pentatonic or
minor scale (Aeolian), and it's in the Key of A minor as well if you didn't know, it's
good song to practice improvising along with too due to the lengthy solos and easy rythm 
if you would like.

But anyways:
this is going to be dedicated to a fine body of men.....it's called...we are the roadcrew

Intro:
Eb|----------------------------------------------------------------------------------------------|
Bb|----------------------------------------------------------------------------------------------|
Gb|--------------------------------------------------------------------------------5--2----------|
Db|-----7--5------------------7--5-------------------7--5--------------------5--7----------------|
Ab|------------7--3--5///------------7--3--5///------------7--3--5----5--7-----------------------|
Eb|----------------------------------------------------------------------------------------------|

Main chunk:
Eb|--------------------------------------------------------------------------------------------|
Bb|--------------------------------------------------------------------------------------------|
Gb|------222--222--222--222--222--222--222--222--222--222--222--222----------------------------|
Db|------222--222--222--222--222--222--222--222--222--222--222--222-----5--5---3--3------------|X2
Ab|------000--000--000--000--000--000--000--000--000--000--000--000-----5--5---3--3------------|
Eb|---------------------------------------------------------------------3--3---1--1------------|

on the third time play this
Eb|--------------------------------------------------------------------------------------------|
Bb|--------------------------------------------------------------------------------------------|
Gb|------222--222--222--222--222--222--222--222--222--222--222--222----5--5---7--7-------------|
Db|------222--222--222--222--222--222--222--222--222--222--222--222----5--5---7--7-------------|
Ab|------000--000--000--000--000--000--000--000--000--000--000--000----3--3---5--5-------------|
Eb|--------------------------------------------------------------------------------------------|

and then play this after that other part
Eb|-------------------------------------------------------|
Bb|-------------------------------------------------------|
Gb|------------------------------------------5--2---------|
Db|-------7--5------------------------5--7----------------|
Ab|--------------7--3--5-------5--7-----------------------|
Eb|-------------------------------------------------------|

that's pretty much the whole song, you just play the main chunk for the rythm during the
solos and keep repeating this as much as necessary and make adjustments in timeing
necessary (manly at the end)
Tap to rate this tab
 
# A B C D E F G H I J K L M N O P Q R S T U V W X Y Z