Mountain - Travellin In The Dark tab

Travellin' In The Dark- Mountain
 
 Riff 1- Distorted Guitar I
e|----------------|----------------|
B|----------------|----------------|
G|----------2-1---|----------------|Play under the lead throughout the riff 
D|---4----4-2-2---|---7----7-9-4---|
A|---2--4-2-0-2---|---5--7-5-7-2---|
E|------2-----0---|------5---------|


 Riff 1- Distorted Guitar II [Lead]
e|----------------|-----------------|-----------------------------------|
B|---10-13-12v----|-13-12-13s15-15v-|-17b19-17br-15-14-15-14-15---------|
G|----------------|-----------------|----------------------------14b16v-|This at first....
D|----------------|-----------------|-----------------------------------|
A|----------------|-----------------|-----------------------------------|
E|----------------|-----------------|-----------------------------------|

e|----------------|-----------------|-----------------------------------|
B|---10-13-12v----|-13-12-13s15-15v-|-17b19-15-14-----------------------|
G|----------------|-----------------|-------------14-11-9b11-9br-7v-----|....then this.
D|----------------|-----------------|-------------------------------9v--|
A|----------------|-----------------|-----------------------------------|
E|----------------|-----------------|-----------------------------------|

 
 2011 J O'Baoigheallain
Tap to rate this tab
 
# A B C D E F G H I J K L M N O P Q R S T U V W X Y Z