Song name
# A B C D E F G H I J K L M N O P Q R S T U V W X Y Z

Mozella - Cant Stop tab

Tabbed by: Jaden Sherrard
Email:jaden@hotmail.com

Tuning:Standard


Guitar 1:
e|----------------------------------------------------------------------|
B|----------------------------------------------------------------------|
G|----------------------------------------------------------------------|
D|----------------------------------------------------------------------|
A|-2-2-2-2-2-2-2-2---6-6-6-6-6-6-6-6------------------------------------|
E|-------------------------------------4-4-4-4-4-4-4-4-4-4-4-4-4-4-4-4--|


Guitar 2:
e|-------------------------14---------14------------14--|
B|-12-11-12-------12-11-12------12-11------12-11-12-----|
G|----------11------------------------------------------|
D|------------------------------------------------------|
A|------------------------------------------------------|
E|------------------------------------------------------|

(ending one)
e|--------------------------------|
B|-12-11-12-----------------------|
G|-----------12h13--12h13--12h12--|
D|--------------------------------|
A|--------------------------------|
E|--------------------------------|


Guitar 1:
e|-----------------------------------------------------|
B|-----------------------------------------------------|
G|-----------------------------------------------------|
D|-4-4--4-4------8-8--8-8------------------------------|
A|-2-2--2-2------6-6--6-6------6-6--6-6------6-6--6-6--|
E|-----------------------------4-4--4-4------4-4--4-4--|


Guitar 2:
e|-15~-~-~---15~-~-~---15~-~-~--|
B|------------------------------|
G|------------------------------|
D|------------------------------|
A|------------------------------|
E|------------------------------|
Tap to rate this tab
# A B C D E F G H I J K L M N O P Q R S T U V W X Y Z