Song name
# A B C D E F G H I J K L M N O P Q R S T U V W X Y Z

Mr Ed Jumps The Gun - Wild Thing tab

Mr.Ed jumps the Gun  Wild Thing


Intro & Chorus                                             start Verse with
|------------------------------        |                   |------
|------------------------------        |                   |------
|-------7-7-9-9-7-7------------        |  x4               |------
|---7-7-7-7-9-9-7-7------------        |                   |---7--
|---7-7-5-5-7-7-5-5------------        |                   |---7--
|---5-5------------------------        |                   |---5--

Verse
|---------------     |
|---------------     |
|---------------     |  x3
|---5-7-5-7-----     |
|---5-7-5-7-----     |
|---3-5-3-5-----     |


Ending
|------          ------
|------          --7/--
|---7-- let ring -7/--
|---7--          --5/--
|---5--          ------



Song structure

Intro
Verse
Chorus
Verse
Chorus
Verse
Chorus
Solo (im to lazy to look for it)
Chorus
Ending


Listen to the song for exact timing




Mike
Tap to rate this tab
# A B C D E F G H I J K L M N O P Q R S T U V W X Y Z