Song name
# A B C D E F G H I J K L M N O P Q R S T U V W X Y Z

Mrbungle - Quote Unquote tab

Tabbed By Ray12342 (by ear)

                        Quote Unquote
                        Mr.Bungle

	~~~~~   ~~~~~   ~~~~~    ~~~~    ~~~~     ~~~~~~
E-|-------------------------------------------------------------------------|
B-|-------------------------------------------------------------------------|
G-|-------------------------------------------------------------------------|
D-|-------------------------------------------------------------------------|
A-|-4-------1-------0-------4--------1-------0-----------4---4---4---4------|
D-|-4-------1-------0-------4--------1-------0-----------4---4---4---4------|


E-|-------------------------------------------------------------------------|
B-|-------------------------------------------------------------------------|
G-|-------------------------------------------------------------------------|
D-|-------------------------------------------------------------------------|
A-|--1--1-----0--0---------4---4---4---4---1---1--1--1----------------------|
D-|--1--1-----0--0---------4---4---4---4---1---1--1--1----------------------|

Bass guitar is going D-|-0-0--0-0--8-8--7-7--4-4--1-1------|
E-|--------------------------------------------------------|
B-|--------------------------------------------------------|
G-|---7^---7^---7^---7^---6^---6^---6^---6^----------------| play 5 times
D-|---7^---7^---7^---7^---6^---6^---6^---6^----------------|
A-|0-0--0-0--0-0--0-0--0-0--0-0--0-0--0-0------------------|
D-|--------------------------------------------------------|

E-|---11---11---11---10---10---10--10---10---------------|
B-|---10---10---10---9----9----9----9----9---------------|
G-|---7^---7^---7^---7^---6^---6^---6^---6^--------------|  play 2 times Then
D-|---7^---7^---7^---7^---6^---6^---6^---6^--------------|
A-|0-0--0-0--0-0--0-0--0-0--0-0--0-0--0-0----------------|
D-|------------------------------------------------------|

Lead Guitar kicks in going G-|---6^-5-5s9-|

E-|------------------------------------------------------|
B-|------------------------------------------------------|
G-|--7^---7^---7^---7^---6^---6^---6^---6^---------------|  play 5 times
D-|--7^---7^---7^---7^---6^---6^---6^---6^---------------|
A-|0-0--0-0--0-0--0-0--0-0--0-0--0-0--0-0----------------|
D-|------------------------------------------------------|

Jazz breakdown!
After the bass breakdown the guitar is doing a fill something quite similar too this
E-|------------------|
B-|------------------|
G-|-0m-0m-0m--10-0m-9|
D-|-0m-0m-0m--10-0m-9|
A-|-0m-0m-0m--10-0m-9|
D-|------------------|

E-|------------------------------|
B-|------------------------------|
G-|------------------------------|
D-|------------------------------|
A-|-0--2---3---5---6----7---8----| Play 4 times
D-|-0--2---3---5---6----7---8----| Keep going up till you get to the 13th note, 
then go 13 back too 12

After this part  the Bass is going

E-|------|
B-|------|
G-|-----2|
D-|-----0|
A-|-----0|
D-|2-0m--| Play 14 times

Thats all i've been able too hear so far, the next part is a variation of the walk-up 
mixes the intro into it also, after that its just the above repeated, Enjoy
Tap to rate this tab
# A B C D E F G H I J K L M N O P Q R S T U V W X Y Z