Song name
# A B C D E F G H I J K L M N O P Q R S T U V W X Y Z

Mu330 - Hoops tab

CHORUS:
-------

       And now we'll see...     We can create....           And now we'll see... And now we'll see.
|e|------------------------------------------------------------------------------------------------|
| |------------------------------------------------------------------------------------------------|
| |---------------------------------------4444----2222---------------------------------------------|
| |---------------------------------------4444----2222---------------------------------------------|
| |-6------7777-----7777-----44444444-----2222----0000----66666666-----77777777--6----77777777--10-|
| |-6------7777-----7777-----44444444---------------------55555555-----77777777--6----77777777--10-|
|E|-4------5555-----4444-----22222222---------------------44444444-----55555555--4----55555555--8--|
   x16                        

VERSE:
------

   Today the secretary pulled my file...
|e|---------------------------------------------| |
| |---------------------------------------------| |
| |-------5----------7----------4----------9--9-| |
| |-------6----------7----------5----------9--9-| | x4 (This part is really just played as sloppily)
| |----7----------7----------6----------9-----9-| |    (picked barre chords: A D G# E              )
| |----------7-5---------------------7----------| |
|E|-5-------------------5-4--------4------------| |

(Apply skank as needed)

E           A    D    G#
Blocks your application
E                A    D G#
If you'd like an education
E           A         D         G#
Please fill out forms A, B, and C
E                A  D G#
And attach it to form D




Heavy distortion part after chorus

| |---------------------------------| |
| |---------------------------------| |
| |-------77-x-------99-------------| |
| |-7-7-x-77-x-6-6-x-99-------------| |
| |-7-7-x-55-x-6-6-x-77-------------| |
| |-5-5-x------4-4-x----------------| |


**I'll finish this later**
Tap to rate this tab
# A B C D E F G H I J K L M N O P Q R S T U V W X Y Z