Song name
# A B C D E F G H I J K L M N O P Q R S T U V W X Y Z

Mucky Pup - Hippies Hate Water tab

Song: Hippies Hate Water
Album: ALIVE AND WELL

e|-------------------------|
B|-------------------------|
G|-7-------7-----------6---|
D|-7---7---7---7---7---6---|
A|-5---7---5---7---7---4---|
E|-----5-------5---5-------|

e|-----------------------------|
B|-----------------------------|
G|-7-------7---------------6---|
D|-7---7---7---7---7---7---6---|
A|-5---7---5---7---7---7---4---|
E|-----5-------5---5---5-------|

e|---------------------------------|
B|---------------------------------|
G|-7-------------------------------|
D|-7---x---x---x---x---x---x---x---|
A|-5---x---x---x---x---x---x---x---|
E|-----x---x---x---x---x---x---x---|

e|---------------------------------| |-----|
B|---------------------------------| |-----|
G|-7---7---5---5-------------------| |-----|
D|-7---7---5---5---7---7---5---3---| |-5---|
A|-5---5---3---3---7---7---5---3---| |-5---|
E|-----------------5---5---3---1---| |-3---|

e|----------|
B|----------|
G|-7----7---|
D|-7----7---|
A|-5----5---|
E|----------|
Tap to rate this tab
 
# A B C D E F G H I J K L M N O P Q R S T U V W X Y Z