Song name
# A B C D E F G H I J K L M N O P Q R S T U V W X Y Z

Muddy Waters - Baby Please Dont Go tab

-------------------------------------------------------------------------------
                 BABY PLEASE DON'T GO - Muddy Waters
-------------------------------------------------------------------------------
Tabbed by: Rowan
E-mail: rwwwwn@gmail.com

Tuning: Standard

        G7                                 C
   Baby please don't go               Baby please don't go

e|----------------------6-6----/8--6------------------------6-6----/8--6--------|
B|--------------------------8--------8--------------------------8--------6------|
G|------------------------------------------------------------------------------|
D|------------------------------------------------------------------------------|
A|------------------------------------------------------------------------------|
E|------------------------------------------------------------------------------|

        G7                      D                      C
   Baby please don't go down to New Orleans you know I love you so

e|-6------/8----6------------------------------------------------------------|
B|----8--------------8-----8-----8b---6--------------------------------------|
G|---------------------------------------7---7--5------5---------------------|
D|---------------------------------------------------8------8---5------------|
A|---------------------------------------------------------------------------|
E|---------------------------------------------------------------------------|


     G7
e|---------------------------------------------------------------------------|
B|---------------------------------------------------------------------------|
G|--------------5----7b------------------------------------------------------|
D|----5--8---------------------5---------------------------------------------|
A|---------------------------------------------------------------------------|
E|---------------------------------------------------------------------------|

(This but is only played by the guitar right at the end but play it every time if you like,
the harmonica does it with its own verison)

That's the basic main riff, feel free to fill it out with slides and bends and stuff if you want.
There's various solos but the progression is the same all the way through, although in 
the recording I have, instead of playing chords the guitarist copies the bass and does 
some groovy arpeggios, either way works though.


************************************

| /   slide up
| \   slide down
| h   hammer-on
| p   pull-off
| ~   vibrato
| +   harmonic
| x   Mute note
| b   Bend
| pb  Pre-bend
| br  Bend release
| pbr Pre-bend release
| brb Bend release bend

************************************
Tap to rate this tab
# A B C D E F G H I J K L M N O P Q R S T U V W X Y Z