Song name
# A B C D E F G H I J K L M N O P Q R S T U V W X Y Z

Muddy Waters - Mannish Boy tab

Muddy Waters
"Mannish Boy"

The song is composed of 5 licks. The first three are played in the intro of the song and 
are used as fil-ins to answer the 5th lick throughout the song.

1st Lick-After"Wooooaa Yeahh"

---------------------|
---8/10v-------------|
------------7b9p5----|
------------------7--|
---------------------|
---------------------|

2nd Lick-After 2nd "Wooa Yeah"

------------------|
------------------|
-7b9--7b9r7p5-----|
----------------7-|
------------------|
------------------|

3rd Lick- After "Everything,evrything, everything gonna be alright dis' mornin'"

-------------------------------------|
--------------8----------------------|
--7/9--7/6\7-----7b9r7p5-------------|
--------------------------7---5/7v---|
-------------------------------------|
-------------------------------------|

3rd Lick-"Ohhhh Yeahh"

----------------5------------|
-----------------------------|
---7b9r7p5-------------------|
------------7----------------|
-----------------------------|
-----------------------------|

4th Lick-Main Riff

-------------------------------|
--------7----5-----------------|
--------7----5h6--6------------|
---/7v----7-------7------------|
-------------------------------|
-------------------------------|
Tap to rate this tab
# A B C D E F G H I J K L M N O P Q R S T U V W X Y Z