Song name
# A B C D E F G H I J K L M N O P Q R S T U V W X Y Z

Mudflow - Sarung Banggi tab

SARUNG BANGGI

The rhythm is up to you guys.. You’ll gonna love this..    
h= hammer
p= pull off
s= slide

        (standard tunning)
Intro:


e-------------5-7s8--7-5-4-7-5----8-5-----8-5-----8-5-4-7------4-5-7-7s8-7-5---|
B-3-5-5s6-5-5-------------------5-----5-6-----6-5---------5-5-7----------------|
G------------------------------------------------------------------------------|
D------------------------------------------------------------------------------|
A------------------------------------------------------------------------------|
E------------------------------------------------------------------------------|
                                         
E---8-5----5-3-1-----1-0-0-5-7s8-7-5-4-7-5-------------------------------------|
B-5----5-5-5-5-3-3-3-----------------------------------------------------------|
G------------------------------------------------------------------------------|
D------------------------------------------------------------------------------|
A------------------------------------------------------------------------------|
E------------------------------------------------------------------------------|

Am,Dm,Em,Am
(Verse)

        Adlib

E----4-5-7-7s9-99999999-9-7-5h7-7-----4-5-7s9—999999999-9-7-5s7-7--------------|
B-5-7-------------------------------7------------------------------------------|
G------------------------------------------------------------------------------|
D------------------------------------------------------------------------------|
A------------------------------------------------------------------------------|
E------------------------------------------------------------------------------|


e-----4-5-7-7s9-99999999-9-14-12-10-10-10--------------------------------------|
B-5-7-------------------------------------14-12-10-13-12-10-9-12-10p9-7--------|
G------------------------------------------------------------------------------|
D------------------------------------------------------------------------------|
A------------------------------------------------------------------------------|
E------------------------------------------------------------------------------|

Am,Dm,Em,Am
(Verse)

Intro and adlib Combined(w/out verse).

(verse)    ending…

Sana nagustuhan nindo mga padangat kong bicolanos…
Pure ORAGON INI..66
Any questions and comments is allowed.. mail me at:
danielverano6@yahoo.com tnx
Tap to rate this tab
# A B C D E F G H I J K L M N O P Q R S T U V W X Y Z