Song name
# A B C D E F G H I J K L M N O P Q R S T U V W X Y Z

Mudhoney - You Got It tab

-------------------------------------------------------------------------------
			     You Got it - Mudhoney
-------------------------------------------------------------------------------
Tabbed by:Matt
Email:Peacefrog359@yahoo.com

Tuning:Standard EADGBe


Intro/Verse
e|----------------3----------------------------------------------------------|
B|----0~--0-0---------6sb-----0-------3--6sb---------------------------------|
G|----0~--0-0-----------------0----5-----------------------------------------|
D|----0~--0-0-----------------0----------------------------------------------|
A|----0~--0-0-----------------0----------------------------------------------|
E|---------------------------------------------------------------------------|


That goes on for a while, and after that part is played twice, guitar 2 Comes in with this:


Rhythm: Verse/Chorus
e|---------------------------------------------------------------------------|
B|---------------------------------------------------------------------------|
G|-------------------------------------------------------7b*-----------------|
D|---7~7--xxxxxxxxxx--5~5--xxxxxxxxxx--3~3--xxxxxxxxxx-----------------------|
A|---7~7--xxxxxxxxxx--5~5--xxxxxxxxxx--3~3--xxxxxxxxxx-----------------------|
E|---9~9--xxxxxxxxxx--7~7--xxxxxxxxxx--5~5--xxxxxxxxxx-----------------------|


Guitar 2 plays that riff throughout the entire song.

*play this only the first time

Bridge Solo Thing
e|------------------------------------------------5-5-----5-5----------------|
B|---------0~-------00~------xx---7~7-77------8b^^^^^^8b^^^^^^8b-6-8b-6------|
G|-----0~------0~------------xx---6~6-66-------------------------------------|
D|---------------------------------------------------------------------------|
A|---------------------------------------------------------------------------|
E|---------------------------------------------------------------------------|


8b^^^ means that you hold the bend while you hit the other notes (5 fret E)



Bridge Solo Thing  After 2nd Verse

e|-----------------------------6---------------10-10----12-12-12b-12b-10-----|
B|------3/8~-8~-8~-8~8~-8~-8\6---6~---6-6/10-------------------------------9b|
G|---------------------------------------------------------------------------|
D|---------------------------------------------------------------------------|
A|---------------------------------------------------------------------------|
E|---------------------------------------------------------------------------|


There you go man, it's pretty simple. Good begginer stuff, much better than green day atleast.

Peace, man.




| b  Bend
| sb Slight Bend
| /  slide up
| \  slide down
| h  hammer-on
| p  pull-off
| ~  vibrato and/or let ring
| +  harmonic
| x  Mute note
===============================================================================
Tap to rate this tab
 
# A B C D E F G H I J K L M N O P Q R S T U V W X Y Z