Guitaretab - guitar tabs
Song name
# A B C D E F G H I J K L M N O P Q R S T U V W X Y Z

Mudhoney - Flat Out Fucked tab

I did not tab this.  I found it and saw ug didnt have it so i submitted it.

(4/4 Time) (Tuning [Low to High] Eb Ab Db Gb Bb Eb) Intro:
 Eb      Ab  F   Eb
----------------------------------------------------------------------------|
----------------------------------------------------------------------------|
-1--------------------------------------------------------------------------|
-2-------7---4-4-2----------------------------------------------------------|
-2-------7---4-4-2----------------------------------------------------------|
-0-------5---2-2-0----------------------------------------------------------|
(Guitar 1)
----------------------------------------------------------------------------|
----------------------------------------------------------------------------|
--------14------------------------------------------------------------------|
------------16--14----------------------------------------------------------|
----------------------------------------------------------------------------|
----------------------------------------------------------------------------|
(Guitar 2)


Verse:
 Ab F   Eb
----------------------------------------------------------------------------|
----------------------------------------------------------------------------|
----------------------------------------------------------------------------|
-7--4-4-2--2-2-2------------------------------------------------------------|
-7--4-4-2--2-2-2------------------------------------------------------------|
-5--2-2-0--0-0-0------------------------------------------------------------|
(Guitar 1)
----------------------------------------------------------------------------|
----------------------------------------------------------------------------|
-14-------------------------------------------------------------------------|
----16--14------------------------------------------------------------------|
----------------------------------------------------------------------------|
----------------------------------------------------------------------------|
(Guitar 2)


Chorus:
 C#
----------------------------------------------------------------------------|
----------------------------------------------------------------------------|
-7-7-7-7-7-7-7-7-7-7-7-7-7-7-7-7-7-7-7-7-7-7-7-7-7-7-7-7-7-7-7-7------------|
-7-7-7-7-7-7-7-7-7-7-7-7-7-7-7-7-7-7-7-7-7-7-7-7-7-7-7-7-7-7-7-7------------|
-5-5-5-5-5-5-5-5-5-5-5-5-5-5-5-5-5-5-5-5-5-5-5-5-5-5-5-5-5-5-5-5------------|
----------------------------------------------------------------------------|
(Guitars 1 and 2)

 Bb        F     Bb        F
----------------------------------------------------------------------------|
----------------------------------------------------------------------------|
-4-4-4-4-4-------4-4-4-4-4--------------------------------------------------|
-4-4-4-4-4-4-4-4-4-4-4-4-4-4-4-4--------------------------------------------|
-2-2-2-2-2-4-4-4-2-2-2-2-2-4-4-4--------------------------------------------|
-----------2-2-2-----------2-2-2--------------------------------------------|
(Guitars 1 and 2) (Play the Above Twice, and then Only the Above Measure
Four Times)


Solo:
 C#                                                              Bb
----------------------------------------------------------------------------|
----------------------------------------------------------------------------|
-7-7-7-7-7-7-7-7-7-7-7-7-7-7-7-7-7-7-7-7-7-7-7-7-7-7-7-7-7-7-7-7-4----------|
-7-7-7-7-7-7-7-7-7-7-7-7-7-7-7-7-7-7-7-7-7-7-7-7-7-7-7-7-7-7-7-7-4----------|
-5-5-5-5-5-5-5-5-5-5-5-5-5-5-5-5-5-5-5-5-5-5-5-5-5-5-5-5-5-5-5-5-2----------|
----------------------------------------------------------------------------|
(Guitars 1 and 2)
[ Tab from: http://www.guitaretab.com/m/mudhoney/86635.html ]
 Ab
------------------------------------5-5---5---------5-5-5-8-5-5-5---5-------|
----------------------------------5-----8---5-5-5-8---------------8---------|
-7(9)-7(9)7p5-7-5-5h7p5-5-5--7(9)-------------------------------------------|
----------------------------------------------------------------------------|
----------------------------------------------------------------------------|
----------------------------------------------------------------------------|
(Guitar 1)
----------------------------------------------------------------------------|
----------------------------------------------------------------------------|
----------------------------------------------------------------------------|
-7-7-7-7-7-7-7-7------------------------------------------------------------|
-7-7-7-7-7-7-7-7------------------------------------------------------------|
-5-5-5-5-5-5-5-5------------------------------------------------------------|
(Guitar 2) (Repeat)

------------------------------------------5---------------------------------|
---------------------------5---6-5--5h6p5---5h6p5-8-8-8--5h6p5--------------|
-7(9)-7(9)7p5---5-----5-5----7---------------------------------7-7-7(9)-----|
--------------7---7-7-------------------------------------------------------|
----------------------------------------------------------------------------|
----------------------------------------------------------------------------|
(Guitar 1)

   C#
---5(6)5----------------------------------5---8p5---------------------------|
-5-------8-8-8-5---------------------5--8---------8p5-----------------------|
--------------------5-7(9)7-5---5--7------------------7-5--5---5---7(9)7----|
------------------7-----------7------------------------------7---7----------|
----------------------------------------------------------------------------|
----------------------------------------------------------------------------|
(Guitar 1)
----------------------------------------------------------------------------|
----------------------------------------------------------------------------|
----7-7-7-7-7-7-7-7-7-------------------------------------------------------|
----7-7-7-7-7-7-7-7-7-------------------------------------------------------|
----5-5-5-5-5-5-5-5-5-------------------------------------------------------|
----------------------------------------------------------------------------|
(Guitar 2) (Repeat)

----------------------------------------------------------------------------|
-----------5------------------5-------8-8-8(10)-----------------------------|
-7(9)7p5---5--------7(9)7p5---5-----------------5-5--7(9)7p5---5-5-7(9)7p5--|
---------7----7-7-----------7----7--7------------------------7--------------|
----------------------------------------------------------------------------|
----------------------------------------------------------------------------|
(Guitar 1)

----------------------------------------------------------------------------|
---------7(8)---------------------------------------------------------------|
---7-7-7-7(8)---------------------------------------------------------------|
-7--------------------------------------------------------------------------|
----------------------------------------------------------------------------|
----------------------------------------------------------------------------|
(Guitar 1)
----------------------------------------------------------------------------|
----------------------------------------------------------------------------|
---------7------------------------------------------------------------------|
---------7------------------------------------------------------------------|
---------5------------------------------------------------------------------|
----------------------------------------------------------------------------|
(Guitar 2)


Ending:
 Ab
----------------------------------------------------------------------------|
----------------------------------------------------------------------------|
----------------------------------------------------------------------------|
-7--------------------------------------------------------------------------|
-7--------------------------------------------------------------------------|
-5--------------------------------------------------------------------------|
(Guitar 1)
----------------------------------------------------------------------------|
----------------------------------------------------------------------------|
-14-------------------------------------------------------------------------|
----------------------------------------------------------------------------|
----------------------------------------------------------------------------|
----------------------------------------------------------------------------|
(Guitar 2)
Related for Flat Out Fucked tab
×
Best way to learn
"Flat Out Fucked"