Song name
# A B C D E F G H I J K L M N O P Q R S T U V W X Y Z

Mudvayne - Dull Boy tab

Help us improve GuitareTab! Take a short survey!
----------------------------------------------------------------------------
 Dull Boy - Mudvayne
----------------------------------------------------------------------------
Tabbed by: Dr. Haskett
Email: olequickdraw@yahoo.com
Tuning: Drop D (DADGBE)

Past tabs are completely inaccurate with the exception of the verses and bridge. This
not look what he plays on stage, but it's definitely what he played in the studio. The
chorus is the only thing that I kind of question, but I can't find any other 
unless there is a second dubbed guitar playing the high notes along with the original chorus.
Enjoy

First Verse:
e|-------------------------------------------------------------------|
B|-------------------------------------------------------------------|
G|-------------------------------------------------------------------|
D|-------------------------------------------------------------------|
A|-------------------------------------------------------------------|
D|0-0-000--0-0-000--000-0-0--000-0-0-0-0-000-0-0-000-000-0-0-000-000-|

x 4 times


e|-------------------------------------------------------------------|
B|-------------------------------------------------------------------|
G|-------------------------------------------------------------------|
D|1h0-----------------------------4h3--------------------------------|
A|1h0-1h0-3h0-1h0-6\5-1h0-3h0-1h0-4h3-4h3-6h3-4h3--888-333-777-222---|
D|----1h0-3h0-1h0-6\5-1h0-3h0-1h0-----4h3-6h3-4h3--888-333-777-222---|
                                                   ... ... ... ...
x 2 times

e|----------------------------------|
B|----------------------------------|
G|----------------------------------|
D|333333333-33333332222222255555555-|
A|111111111\33333330000000033333333-|
D|000000001\33300330000000022222222-|

x 4 times

Second Verse:
e|-------------------------------------------------------------------|
B|-------------------------------------------------------------------|
G|-------------------------------------------------------------------|
D|-------------------------------------------------------------------|
A|-------------------------------------------------------------------|
D|0-0-000--0-0-000--000-0-0--000-0-0-0-0-000-0-0-000-000-0-0-000-000-|

x 5 times


e|-------------------------------------------------------------------|
B|-------------------------------------------------------------------|
G|-------------------------------------------------------------------|
D|1h0-----------------------------4h3--------------------------------|
A|1h0-1h0-3h0-1h0-6\5-1h0-3h0-1h0-4h3-4h3-6h3-4h3--888-333-777-222---|
D|----1h0-3h0-1h0-6\5-1h0-3h0-1h0-----4h3-6h3-4h3--888-333-777-222---|

x 1 time only

e|----------------------------------|
B|----------------------------------|
G|----------------------------------|
D|333333333-33333332222222255555555-|
A|111111111\33333330000000033333333-|
D|000000001\33300330000000022222222-|

x 4 times

Bridge:

e|-------------------------------------------------------------------|
B|-------------------------------------------------------------------|
G|------------------------------------------------------------0------|
D|--3-------3-------2-------2-3202--3-------3-------2-------2--------|
A|-1-------1-------0-------0-------1-------1-------0-------0---------|
D|0-------0-------0-------0-(0)---0-------0-------0-------0----------|

x 2 times

After 1st time, 2nd guitar comes in:


e|5-----------8-5-3---------------5-----------8-5-3------------------|
B|6----------10-6-2---------------3----------10-6-2------------------|
G|-------------------------------------------------------------------|
D|-------------------------------------------------------------------|
A|-------------------------------------------------------------------|
D|-------------------------------------------------------------------|


x 2 times


e|-------------------------------------------------------------------|
B|-------------------------------------------------------------------|
G|-------------------------------------------------------------------|
D|--3-------3-------2-------2-3202--3-------3-------2----------------|
A|-1-------1-------0-------0-------1-------1-------0-----------------|
D|0-------0-------0-------0-(0)---0-------0-------0------------------|

x 1 time only

Last chorus:


e|-------------------------33333333-|
B|-----------------55555555xxxxxxxx-|
G|-----------------xxxxxxxx55555555-|
D|333333333-33333332222222255555555-|
A|111111111\33333330000000033333333-|
D|000000001\333003300000000---------|
It's not exactly easy.

x 4 times

The Last part is played in Drop C tuning (CGCFAD):

D|-------------------------------------------------------------------|
A|-------------------------------------------------------------------|
F|------------------------------------------------------------2------|
C|--5-------5-------4-------4-5424--5-------5-------4-------4--------|
A|-3-------3-------2-------2-------3-------3-------2-------2---------|
D|2-------2-------2-------2-(2)---2-------2-------2-------2----------|

D|-------------------------------------------------------------------|
A|-------------------------------------------------------------------|
F|-------------------------------------------------------------------|
C|--5-------5-------4-------4-5424--5-------5-------4----------------|
A|-3-------3-------2-------2-------3-------3-------0-----------------|
D|2-------2-------2-------2-(2)---2-------2-------0------------------|
END
Related for Dull Boy tab