Song name
# A B C D E F G H I J K L M N O P Q R S T U V W X Y Z

Mudvayne - On The Move tab

Band- Mudvayne
Song- On The Move

This song im not so sure about. its not 100% but this
song hasnt been tabbed yet so here is my shot at it

Intro

|-----------------------------|
|-----------------------------|
|-----------------------------|
|-----------------------------|
|-3-4-3-4-0-00-3-4-5-0-4-3-00-|
|-3-4-3-4-0-00-3-4-5-0-4-3-00-|

Verse 1

|--------------------|
|--------------------|
|-5-5-5-----5-5-5----|
|-X-X-X-----X-X-X----|
|-3-3-3--0--3-3-3--0-|
|--------0---------0-|

|-----------------------------------------------------------|
|-----------------------------------------------------------|
|-------5--5-5-5-----5-5-5------------4--5-5-5-----5-5-5----|
|-------X--X-X-X-----X-X-X------------X--X-X-X-----X-X-X----|
|-000-0-3--3-3-3--0--3-3-3-0------000-2--3-3-3--0--3-3-3--0-|
|-000-0-----------0--------0------000-----------0---------0-|

Verse 2

|--------------------|
|--------------------|
|-5-5-5-----5-5-5----|
|-X-X-X-----X-X-X----|
|-3-3-3--0--3-3-3--0-|
|--------0---------0-|

|-----------------------------------------------------------------------|
|-----------------------------------------------------------------------|
|------------------5-5-5-----5-5-5-------------------5-5-5-----5-5-5----|
|------------------X-X-X-----X-X-X-------------------X-X-X-----X-X-X----|
|-00-00-00-000-00--3-3-3--0--3-3-3--00-00-00-000-00--3-3-3--0--3-3-3--0-|
|-00-00-00-000-00---------0---------00-00-00-000-00---------0---------0-|

Verse 3

|----------------------------------------------------------------------------|
|----------------------------------------------------------------------------|
|-5-5-5-----5-5-5----------9-------9----5-5-5-----5-5-5----------9-------9---|
|-X-X-X-----X-X-X----------X-------X----X-X-X-----X-X-X----------X-------X---|
|-3-3-3--0--3-3-3--0--000--7--000--7-0--3-3-3--0--3-3-3--0--000--7--000--7-0-|
|--------0---------0--000-----000----0---------0---------0--000-----000----0-|

Chorus

|-------|-----------------------------------------|
|-------|-----------------------------------------|
|-------|-----------------------------------------|
|10-(64)|-----------------------------------------|
|7------|-3-4H5P4-0-0-3-4H5P4-3-4H5P4-0-0-3-4H5P4-|
|7------|-3-4H5P4-0-0-3-4H5P4-3-4H5P4-0-0-3-4H5P4-|

        |-----------------------------------------|
        |-----------------------------------------|
        |-----------------------------------------|
        |-----------------------------------------|
        |-3-54--3-54--0--3-54--3-54-3-54--0--3-54-|
        |-3-54--3-54--0--3-54--3-54-3-54--0--3-54-|

Breakdown

|------------------------------------------------------------------|
|------------------------------------------------------------------|
|------------------------------------------------------------------|
|----10-----10-------10-------10--------9-----9-------9-------9----|
|-7------7------7-7------7-7------7--6-----6-----6-6-----6-6-----6-|
|------------------------------------------------------------------|

|--------------------------------|
|--------------------------------|
|--------------------------------|
|--------------------------------|
|-444-44-454-453--333-33-343-342-|
|-444-44-454-453--333-33-343-342-|
Tap to rate this tab
 
# A B C D E F G H I J K L M N O P Q R S T U V W X Y Z