Song name
# A B C D E F G H I J K L M N O P Q R S T U V W X Y Z

Mudvayne - Dig tab

Dig
Mudvayne
Created by: Brandon Nelson

(The @ sign means 10, 10 wouldnt fit right so i replaced it with @ so just play the 10th 
on the @ symbol)

+---------------+
| h = hammer on
| p = pull off
| ~ = hold
| / = slide
+---------------+
     (Intro)
e|-2-2---2-2---2-2---2-2---2-2---2-2---2-2---2-2---|
B|-3-3---3-3---3-3---3-3---3-3---3-3---3-3---3-3---|
G|-1-1---1-1---1-1---1-1---1-1---1-1---1-1---1-1---|
D|-0-0---0-0---0-0---0-0---0-0---0-0---0-0---0-0---|
A|-0-0---0-0---0-0---0-0---0-0---0-0---0-0---0-0---|
E|-0-0---0-0---0-0---0-0---0-0---0-0---0-0---0-0---|

e|-9-9---9-9---9-9---9-9---9-9---9-9---9-9---------|
B|-@-@---@-@---@-@---@-@---@-@---@-@---@-@---------|
G|-8-8---8-8---8-8---8-8---8-8---8-8---8-8---------|
D|-0-0---0-0---0-0---0-0---0-0---0-0---0-0---------|
A|-0-0---0-0---0-0---0-0---0-0---0-0---0-0---------|
E|-0-0---0-0---0-0---0-0---0-0---0-0---0-0---------|
     (Chrous/End of Intro)
e|------------------------------------------------------|
B|------------------------------------------------------|
G|------------------------------------------------------|
D|-1-1---1-1----1----1-1------1-1----1----1-1-----------|
A|-0-0---0-0h2--0h2--0-0------0-0h2--0h2--0-0-----------|
E|-0-0---0-0h2--0h2--0-0------0-0h2--0h2--0-0-----------|
   AAAAAAAAAAAAaaaaaaaaaaaaaaaaaaaaaaaaaaaaaahhhhhh...
e|------------------------------------------------------|
B|------------------------------------------------------|
G|------------------------------------------------------|
D|-1-1----1----1-1------1-1/12/1------------------------|
A|-0-0h2--0h2--0-0------0-0-----------------------------|
E|-0-0h2--0h2--0-0------0-0-----------------------------|
   ...hhhhhhhhhh!!!!
     (Chorus)
e|------------------------------------------------------|
B|------------------------------------------------------|
G|------------------------------------------------------|
D|-1-1---1-1----1----1-1------1-1----1----1-1-----------|
A|-0-0---0-0h2--0h2--0-0------0-0h2--0h2--0-0-----------|
E|-0-0---0-0h2--0h2--0-0------0-0h2--0h2--0-0-----------|
   Dig...   ...Bury Me...  ...Underneath...
e|------------------------------------------------------|
B|------------------------------------------------------|
G|------------------------------------------------------|
D|-1-1----1----1-1------1-1/12/1----------------(2x)----|
A|-0-0h2--0h2--0-0------0-0-----------------------------|
E|-0-0h2--0h2--0-0------0-0-----------------------------|
   ...Everything...     ...Rearanging!
    (Verse 1)
e|------------------------------------------------------|
B|------------------------------------------------------|
G|------------------------------------------------------|
D|-1-1---1-1----1----1-1------1-1----1----1-1-----------|
A|-0-0---0-0h2--0h2--0-0------0-0h2--0h2--0-0-----------|
E|-0-0---0-0h2--0h2--0-0------0-0h2--0h2--0-0-----------|
   I, would love...
e|------------------------------------------------------|
B|------------------------------------------------------|
G|-------------(slowly slide)---------------------------|
D|-1-1----1----1-1~/12~/1-------------------------------|
A|-0-0h2--0h2--0-0--------------------------------------|
E|-0-0h2--0h2--0-0--------------------------------------|

e|------------------------------------------------------|
B|------------------------------------------------------|
G|------------------------------------------------------|
D|-1-1---1-1----1----1-1------1-1----1----1-1-----------|
A|-0-0---0-0h2--0h2--0-0------0-0h2--0h2--0-0-----------|
E|-0-0---0-0h2--0h2--0-0------0-0h2--0h2--0-0-----------|
   Drowning...
e|------------------------------------------------------|
B|------------------------------------------------------|
G|-------------(slowly slide)---------------------------|
D|-1-1----1----1-1~/12~/1-------------------------------|
A|-0-0h2--0h2--0-0--------------------------------------|
E|-0-0h2--0h2--0-0--------------------------------------|
   Gums bleeding!
     (Chorus)
e|------------------------------------------------------|
B|------------------------------------------------------|
G|------------------------------------------------------|
D|-1-1---1-1----1----1-1------1-1----1----1-1-----------|
A|-0-0---0-0h2--0h2--0-0------0-0h2--0h2--0-0-----------|
E|-0-0---0-0h2--0h2--0-0------0-0h2--0h2--0-0-----------|
   Dig...   ...Bury Me...  ...Underneath...
e|------------------------------------------------------|
B|------------------------------------------------------|
G|------------------------------------------------------|
D|-1-1----1----1-1------1-1/12/1---------------(2x)-----|
A|-0-0h2--0h2--0-0------0-0-----------------------------|
E|-0-0h2--0h2--0-0------0-0-----------------------------|
   ...Everything...     ...Rearanging!
    (Verse 2) (Speed up the hammer-ons)
e|------------------------------------------------------|
B|------------------------------------------------------|
G|------------------------------------------------------|
D|-1-1---1-1----1----1-1------1-1----1----1-1-----------|
A|-0-0---0-0h2--0h2--0-0------0-0h2--0h2--0-0-----------|
E|-0-0---0-0h2--0h2--0-0------0-0h2--0h2--0-0-----------|
   I struggle in...
e|------------------------------------------------------|
B|------------------------------------------------------|
G|------------------------------------------------------|
D|-1-1----1----1-1~/12~/1-------------------------------|
A|-0-0h2--0h2--0-0--------------------------------------|
E|-0-0h2--0h2--0-0--------------------------------------|
   ...selling my soul...
e|------------------------------------------------------|
B|------------------------------------------------------|
G|------------------------------------------------------|
D|-1-1---1-1----1----1-1------1-1----1----1-1-----------|
A|-0-0---0-0h2--0h2--0-0------0-0h2--0h2--0-0-----------|
E|-0-0---0-0h2--0h2--0-0------0-0h2--0h2--0-0-----------|
   ...Living...
e|------------------------------------------------------|
B|------------------------------------------------------|
G|-------------(slowly slide)---------------------------|
D|-1-1----1----1-1~/12~/1-------------------------------|
A|-0-0h2--0h2--0-0--------------------------------------|
E|-0-0h2--0h2--0-0--------------------------------------|
   ...to f*** me!
     (Chorus)
e|------------------------------------------------------|
B|------------------------------------------------------|
G|------------------------------------------------------|
D|-1-1---1-1----1----1-1------1-1----1----1-1-----------|
A|-0-0---0-0h2--0h2--0-0------0-0h2--0h2--0-0-----------|
E|-0-0---0-0h2--0h2--0-0------0-0h2--0h2--0-0-----------|
   Dig...   ...Bury Me...  ...Underneath...
e|------------------------------------------------------|
B|------------------------------------------------------|
G|------------------------------------------------------|
D|-1-1----1----1-1------1----1-1/12/1----------(2x)-----|
A|-0-0h2--0h2--0-0------0h2--0-0------------------------|
E|-0-0h2--0h2--0-0------0h2--0-0------------------------|
   ...Everything...     ...Rearanging!
     (Beginning of Verse 3)
e|--------------------------------|
B|--------------------------------|
G|--------------------------------|
D|--0---1---2---3---2---1---0-----|
A|--0---1---2---3---2---1---0-----|
E|--0---1---2---3---2---1---0-----|
   You aint f***** changing me!
e|-2-2---2-2---2-2---2-2---9-9---9-9---9-9------|
B|-3-3---3-3---3-3---3-3---@-@---@-@---@-@------|
G|-1-1---1-1---1-1---1-1---8-8---8-8---8-8------|
D|-0-0---0-0---0-0---0-0---0-0---0-0---0-0------|
A|-0-0---0-0---0-0---0-0---0-0---0-0---0-0------|
E|-0-0---0-0---0-0---0-0---0-0---0-0---0-0------|
   Dig!  Dig!  Dig!  Dig!  Dig!  Dig!  Dig!
e|-------------------------------------|
B|-------------------------------------|
G|--------------------------------(7x)-|
D|--1-1------1-----1----1----1-1-------|
A|--0-0h2p0--2p0---2p0--2p0--0-0-------|
E|--0-0h2p0--2p0---2p0--2p0--0-0-------|
   Let me help you...
e|--------------------------------|
B|--------------------------------|
G|--------------------------------|
D|--0---1---2---3---2---1---0-----|
A|--0---1---2---3---2---1---0-----|
E|--0---1---2---3---2---1---0-----|
   Get on the plank...
     (Chorus)
e|------------------------------------------------------|
B|------------------------------------------------------|
G|------------------------------------------------------|
D|-1-1---1-1----1----1-1------1-1----1----1-1-----------|
A|-0-0---0-0h2--0h2--0-0------0-0h2--0h2--0-0-----------|
E|-0-0---0-0h2--0h2--0-0------0-0h2--0h2--0-0-----------|
   Dig...   ...Bury Me...  ...Underneath...
e|------------------------------------------------------|
B|------------------------------------------------------|
G|------------------------------------------------------|
D|-1-1----1----1-1------1----1-1/12/1----------(2x)-----|
A|-0-0h2--0h2--0-0------0h2--0-0------------------------|
E|-0-0h2--0h2--0-0------0h2--0-0------------------------|
   Everything...         Rearanging
     (Outro)
e|-----------------------------------------|
B|-----------------------------------------|
G|-----------------------------------------|
D|-1-1---1-1----1----------------1-1-------|
A|-0-0---0-0h2--0h2--------------0-0-------|
E|-0-0---0-0h2--0h2--------------0-0-------|
 Wish you were commiting...  ...Suicide!
e|----------------------------|-------------|
B|----------------------------|-------------|
G|-----------------------(3x)-|-------------|
D|-1-1----1----1-----1-1------|---1-1-------|
A|-0-0h2--0h2--0h2---0-0------|---0-0-------|
E|-0-0h2--0h2--0h2---0-0------|---0-0-------|
  Suckin on a m**** f*****...  ...Bombs away!
Tap to rate this tab
 
# A B C D E F G H I J K L M N O P Q R S T U V W X Y Z