Guitaretab - guitar tabs
Song name
# A B C D E F G H I J K L M N O P Q R S T U V W X Y Z

Mudvayne - Do What You Do tab

Artist: Mudvayne
Song: Do What You Do
Album: The New Game

Tuning: Drop C

This is not 100% at all...and I don't have all the parts but I got most of them. Please 
and comment

Intro/Verse
D|------------------|--------------|
A|-----------3------|--------------|
F|-----------2------|----0----0----|
C|-----3--0--0------|--------------|
G|-3/5-3--0---------|--------------|
C|-----3--0---------|--3----3----3-|

Chorus
D|---------------------------------------------------------|
A|---------------------------------------------------------|
F|--------------------------------------5-7-5---5-7-4------|
C|--0-0-0--0-------------------5-5-5--5-x-x-x-0-x-x-x------|
G|--0-0-0--0-3-----------------3-3-3--3-3-5-3-0-3-5-2------|
C|--0-0-0--0---5-3-0-3-5-3-0---3-3-3--3-------0-------0----|
[ Tab from: http://www.guitaretab.com/m/mudvayne/173127.html ]
Solo (wah)
D|----------------------------------8-10---------------------------|
A|--------------------------------------------10~~~--18-17-15-17~~-|
F|--------------5h7p5h7p5h7p5h7~~~-------10-7----------------------|
C|------3-0-7~~~---------------------------------------------------|
G|--3-5------------------------------------------------------------|
C|-----------------------------------------------------------------|

(continued)
Tremolo pick
D|-------------------------------|-----------------------------------21-|
A|-------------------------------|--21-21-21--21p18/19h21~--21p18/19---|
F|--15-14-19---------15-14-19----|--------------------------------------|
C|-----------15-14---------------|--------------------------------------|
G|-------------------------------|--------------------------------------|
C|-------------------------------|--------------------------------------|
Related for Do What You Do tab
Do What You Do chords by Mudvayne