Song name
# A B C D E F G H I J K L M N O P Q R S T U V W X Y Z

Mudvayne - Scarlet Letters tab

Mudvayne Scarlet Letters
by Gigantz (orhan90@rambler.ru)

Tuning - DAFCGC

Into

     E  E  E  E  E  E  E  E     E  E  E  E  E  E  E  E   
D||--------------------------|--------------------------|
A||--------------0-----------|--------------0-----------|
F||-----------------0-----0--|--------0--------0-----0--|
C||-----2-----2--------2-----|-----2-----2--------2-----|
G||--0-----0-----------------|--2-----------------------|
C||--------------------------|--------------------------|

  E  E  E  E  E  E  E  E     E  E  E  E  E  E  E  E   
--------------------------|--------------------------|
--------------------------|--------------------------|
--------0--------0--------|--------0-----------0-----|
-----2-----2--0-----0-----|-----0-----0-----0-----0--|
--3--------------------3--|--2-----------0-----------|
--------------------------|--------------------------|

Chorus

D -0- -0- -0- -0-
A -0- -0- -0- -0-
F -0- -0- -0- -0-
C -7  -2- -5- -0-
G -7- -2- -5- -0-
C -7- -2- -5- -0-

Solo

------------------------------|---------------------------|
--10--------13--12--10--12----|-----------13--12--10--12--|
------------------------------|--9------------------------|
------------------------------|---------------------------|
------------------------------|---------------------------|
------------------------------|---------------------------|


  H         E   E   E   E      H         E   E   E   
---------------------------|------------------------|
--8--------13--12--10--12--|--15--------12--13--12--|
---------------------------|------------------------|
---------------------------|------------------------|
---------------------------|------------------------|
---------------------------|------------------------|


   E    S   S  E    E   E   E      H           H         
--------------12h--13------12--|--17pb--------17--------|
--12h--13h-15----------15------|------------------------|
-------------------------------|------------------------|
-------------------------------|------------------------|
-------------------------------|------------------------|
-------------------------------|------------------------|


   H         Q     S   S   E     Q    S   S  E  H           W                 
--10--------10----10h-12p-10--|--8----8h-10p-8--7--------|--5----------------|
------------------------------|--------------------------|-------------------|
------------------------------|--------------------------|-------------------|
------------------------------|--------------------------|-------------------|
------------------------------|--------------------------|-------------------|
------------------------------|--------------------------|-------------------|
Tap to rate this tab
# A B C D E F G H I J K L M N O P Q R S T U V W X Y Z