Song name
# A B C D E F G H I J K L M N O P Q R S T U V W X Y Z

Mudvayne - Idiot tab

Help us improve GuitareTab! Take a short survey!
mudvayne - idiot
kud: this is a song about what i am a motherf*ckin idiot check it out
low: 5
mid: 0
treble: 10
reverb: 5
gain: 10
C G C f a d(low to high)
submitted by: diluted_interloper1992@hotmail.com

(feedback)
|-------------------------------------------------------------------------|
|-------------------------------------------------------------------------|
|-------------------------------------------------------------------------|
|-------------------------------------------------------------------------|
|-------------------------------------------------------------------------|
|0-1-2-0-1-2-3-4-5-6--0-1-2-0-1-2-0-1-3-2-1-2--0-1-2-0-1-2-3-4-3-2-3-4-5-5|


|-----------------------------------------------|
|-----------------------------------------------|
|-----------------------------------------------|
|-----------------------------------------------|
|-----------------------------------------------|
|0-1-2-0-1-2-3-4-5-6-0-1-2-0-1-2-3-4-3-2-3-4-5-5|
|0-1-2-0-1-2-3-4-5-6-0-1-2-0-1-2-3-4-3-2-3-4-5-5|


|----------------------------------------------|
|----------------------------------------------|
|----------------------------------------------|
|----------------------------------------------|
|---------1----------1----------1H2-2-2H3-3-3H4|
|[0-[0-[0-1-[0-[0-[0-1-[0-[0-[0-1H2-2-2H3-3-3H4|


|-----------------------------------------------|
|-----------------------------------------------|
|-----------------------------------------------|
|-----------------------------------------------|
|-----------------------------------------------|
|0-1-2-0-1-2-3-4-5-6-0-1-2-0-1-2-3-4-3-2-3-4-5-5|
|0-1-2-0-1-2-3-4-5-6-0-1-2-0-1-2-3-4-3-2-3-4-5-5|


|---------------------------------------|
|-3-3-3-4-4-4-5-5-6-3-3-3-4-4-4-5-5-6-5^|
|-3-3-3-4-4-4-5-5-6-3-3-3-4-4-4-5-5-6-5^|
|---------------------------------------|
|0~~~~~~~~~~~~~~~~~3~~~~~~~~~~~~~~~~~0--|
|0~~~~~~~~~~~~~~~~~3~~~~~~~~~~~~~~~~~0--|



|-----------------------------------------------|
|-----------------------------------------------|
|-----------------------------------------------|
|-----------------------------------------------|
|-----------------------------------------------|
|0-1-2-0-1-2-3-4-5-6-0-1-2-0-1-2-3-4-3-2-3-4-5-5|
|0-1-2-0-1-2-3-4-5-6-0-1-2-0-1-2-3-4-3-2-3-4-5-5|


|-----------------------------|
|-----------------------------|
|-----------------------------|
|-----------------------------|
|0~~~~~~3~~~~~~3~~~~~~~~~~~~~~|
|0~~~~~~3~~~~~~3~~~~~~~3~~~~~~|

|---------------------------------------------|
|---------------------------------------------|
|---------------------------------------------|
|---------------------------------------------|
|------------2-3-------------4-------4-------4|
|[0-[0-[0-[0-2-3-[0-[0-[0-[0-4-[0-[0-4-[0-[0-4|

|-------------------------------------|
|-------------------------------------|
|-------------------------------------|
|-------------------------------------|
|0-0-0-0-2-3-0-0-0-0-4-0-0-0-0-4-0-0-4|
|0-0-0-0-2-3-0-0-0-0-4-0-0-0-0-4-0-0-4|

|----------------------|
|-------6-------6---6-5|
|-------6-------6---6-5|
|----------------------|
|0-0-0-0-0-0-0-0-0-0---|
|0-0-0-0-0-0-0-0-0-0---|

|-------------------------------------------------------|
|-------------------------------------------------------|
|-------------------------------------------------------|
|-------------------------------------------------------|
|[0-[0-[0-[0-0h1-[0-[0-[0-[0-0H1-[0-[0-[0-[0-0H1-3H2-1H2|
|[0-[0-[0-[0-0h1-[0-[0-[0-[0-0H1-[0-[0-[0-[0-0H1-3H2-1H2|

|-----------------------------------------------|
|-----------------------------------------------|
|-----------------------------------------------|
|-----------------------------------------------|
|-----------------------------------------------|
|0-1-2-0-1-2-3-4-5-6-0-1-2-0-1-2-3-4-3-2-3-4-5-5|
|0-1-2-0-1-2-3-4-5-6-0-1-2-0-1-2-3-4-3-2-3-4-5-5|

|-----------------------------------------------------------------|
|-----------------------------------------------------------------|
|-----------------------------------------------------------------|
|-----------------------------------------------------------------|
|0-2-2-0-2-2-0-2-3-4-5-0-2-2-0-2-2-0-2-2-3-4-5-0-2-2-0-2-2-0-2-2-0|
|0-2-2-0-2-2-0-2-3-4-5-0-2-2-0-2-2-0-2-2-3-4-5-0-2-2-0-2-2-0-2-2-0|
Related for Idiot tab