Song name
# A B C D E F G H I J K L M N O P Q R S T U V W X Y Z

Mudvayne - World So Cold tab

Song: World So Cold
Artist: Mudvayne
Album: The End of All Things to Come
Tabbed by:Thegame/myspace

Dropped D and tuned down a step


Verse (clean)
d-------------------------------------------------------------|
A-------------------------------------------------------------|
F-------------------------------------------------------------|
C--10-10-10-10-10-10-10-10-10-10-10-10-10-10--9-9-9-9-9-7-9---|
G---7--7--7--7--7--7--7--7--7--7--7--7--7--7--7-7-7-7-7-7-7---|
C---7--7--7--7--7--7--7--7--7--7--7--7--7--7--7-7-7-7-7-7-7---|

(continued)
d-------------------------------------------------------------|
A-------------------------------------------------------------|
F-------------------------------------------------------------|
C--7-7-7-7-7-7-7-7-7-7-7-9-9-9-10---5-5-5-5-5-5-5-5-5-5-5-5---|
G--7-7-7-7-7-7-7-7-7-7-7-7-7-7--7-0-3-3-3-3-3-3-3-3-3-3-3-3---|
C--7-7-7-7-7-7-7-7-7-7-7-7-7-7--7-0-3-3-3-3-3-3-3-3-3-3-3-3---|

(continued)
d-------------------------------------------------------------|
A-------------------------------------------------------------|
F-------------------------------------------------------------|
C--5-5-5-5---5-5-5-5-5-5-5-5-5-5-5-5/-7-7-7-7-7-7-------------|
G--3-3-3-3-0-3-3-3-3-3-3-3-3-3-3-3-3/-5-5-5-5-5-5-------------|
C--3-3-3-3-0-2-2-2-2-2-2-2-2-2-2-2-2/-5-5-5-5-5-5-------------|


Chorus
d-------------------------------------------------------------|
A-------------------------------------------------------------|
F-5-5--5-5--5-5--5-5-5-5-4-4-4---5-5--5-5--5-5--5-5-5-5-4-4-4-|
C-3-3--3-3--3-3--x-x-x-x-x-x-x---3-3--3-3--3-3--x-x-x-x-x-x-x-|
G-3-3--3-3--3-3--3-3-3-3-2-2-2---3-3--3-3--3-3--3-3-3-3-2-2-2-|
C-3-3--3-3--3-3------------------3-3--3-3--3-3----------------|

(continued)
d-------------------------------------------------------------|
A-------------------------------------------------------------|
F--------------------7-7-7-7---------------------12-12-12-12--|
C--0--0-2h3p2--0-----x-x-x-x---0--0-2h3p2--0------x--x--x--x--|
G--0--0-2h3p2--0-----5-5-5-5---0--0-2h3p2--0-----10-10-10-10--|
C--0--0-2h3p2--0--6v-----------0--0-2h3p2--0--6v--------------|


Riff
d-------------------------------------------------------------|
A-------------------------------------------------------------|
F-------------------------------------------------------------|
C--10-10-10-10-10-10-10-10-10-10-10-10-10-10--9-9-9-9-9-7-9---|
G---7--7--7--7--7--7--7--7--7--7--7--7--7--7--7-7-7-7-7-7-7---|
C---7--7--7--7--7--7--7--7--7--7--7--7--7--7--7-7-7-7-7-7-7---|

(continued)
d-------------------------------------------------------------|
A-------------------------------------------------------------|
F-------------------------------------------------------------|
C--7-7-7-7-7-7-7-7-7-7-7-9-9-9-10---5-------------------------|
G--7-7-7-7-7-7-7-7-7-7-7-7-7-7--7-0-3-------------------------|
C--7-7-7-7-7-7-7-7-7-7-7-7-7-7--7-0-3-------------------------|


Fill (guitar arranged for piano)
d-------------------------------------------------------------|
A---------8-------------8-------------8------------8----------|
F-------------------------------------------------------------|
C--7--10--------7--7-10--------7--10-------7--7-10------------|
G-------------------------------------------------------------|
C-------------------------------------------------------------|


Riff 2
d-------------------------------------------------------------|
A-------------------------------------------------------------|
F-5-5--5-5--5-5--5-5-5-5-4-4-4---5-5--5-5--5-5--5-5-5-5-4-4-4-|
C-3-3--3-3--3-3--x-x-x-x-x-x-x---3-3--3-3--3-3--x-x-x-x-x-x-x-|
G-3-3--3-3--3-3--3-3-3-3-2-2-2---3-3--3-3--3-3--3-3-3-3-2-2-2-|
C-3-3--3-3--3-3------------------3-3--3-3--3-3----------------|


Bridge
d-------------------------------------------------------------|
A-------------------------------------------------------------|
F-------------------------------------------------------------|
C--0-0-0--0--0-0-0-0--3-3-3-0--2-2-2--2--2-2-2-2--2-2-2-------|
G--0-0-0--0--0-0-0-0--3-3-3-0--3-3-3--3--3-3-3-3--3-3-3-------|
C--0-0-0--0--0-0-0-0--3-3-3-0--2-2-2--2--2-2-2-2--2-2-2-------|

(continued)
d-------------------------------------------------------------|
A-------------------------------------------------------------|
F-------------------------------------------------------------|
C--10-10-10--12-12-12--7-7-7--10-10-10--10-10-10--10-10-10----|
G---7--7--7--10-10-10--5-5-5---8--8--8---7--7--7---8--8--7----|
C---8--8--8--10-10-10--5-5-5---8--8--8---8--8--8---8--8--8----|


Solo A (Guitar 1)
d-------------------------------------------------------------|
A-------------------------------------------------------------|
F-------------------------------------------------------------|
C--0---12---15--10--10-10-10--10--10\-8--8-8--10--10-10--5-5--|
G--0---12---15--10--10-10-10--10--10\-8--8-8--10--10-10--5-5--|
C--0---12---15--10--10-10-10--10--10\-8--8-8--10--10-10--5-5--|

(continued)
d-------------------------------------------------------------|
A-------------------------------------------------------------|
F-------------------------------------------------------------|
C--8--8-8--7--7--7-7------------------------------------------|
G--8--8-8--8--8--8-8------------------------------------------|
C--8--8-8--7--7--7-7------------------------------------------|


Solo B (Guitar 2)
d-------------------------------------------------------------|
A-------------------------------------------------------------|
F-------7---10-9-10\9--5--5----9-9/10--10/12--12----15--15-15-|
C--0-0--7----x-x--x-x--x--x----x-x------x------x-----x---x--x-|
G--0-0--5----8-7--8\7--3--3----7-7/-8---8/10--10----13--13-13-|
C--0-0--------------------------------------------------------|

(continued)
d-------------------------------------------------------------|
A-------------------------------------------------------------|
F--17---17-17\--12--12----15--15--14--14----------------------|
C---x----x--x----x---x-----x---x---x---x----------------------|
G--15---15-15\--10--10----13--13--12--12----------------------|
C-------------------------------------------------------------|


Bridge 2A (Guitar 1)
d-------------------------------------------------------------|
A-------------------------------------------------------------|
F-------------------------------------------------------------|
C--3-3-3-3-3-3-3-3-3-3-3-3-3-3-3-3--7-7-7-7-7-7-7-7--9-9-9-9--|
G--3-3-3-3-3-3-3-3-3-3-3-3-3-3-3-3--7-7-7-7-7-7-7-7--9-9-9-9--|
C--3-3-3-3-3-3-3-3-3-3-3-3-3-3-3-3--7-7-7-7-7-7-7-7--9-9-9-9--|

(continued)
d-------------------------------------------------------------|
A-------------------------------------------------------------|
F-------------------------------------------------------------|
C--10-10-9-9--3-3-3-3-3-3-3-3-3-3-3-3--10m-10m-9m-7m--7-7-7-7-|
G--10-10-9-9--3-3-3-3-3-3-3-3-3-3-3-3--10m-10m-9m-7m--7-7-7-7-|
C--10-10-9-9--3-3-3-3-3-3-3-3-3-3-3-3--10m-10m-9m-7m--7-7-7-7-|

(continued)
d-------------------------------------------------------------|
A-------------------------------------------------------------|
F-------------------------------------------------------------|
C--7-7-7-7--0-------------------------------------------------|
G--7-7-7-7--0-------------------------------------------------|
C--7-7-7-7--0-------------------------------------------------|


Bridge 2B (Guitar 2)
d-------------------------------------------------------------|
A-------------------------------------------------------------|
F--10-10-10-10-10-10-10-10-10-10-10-10-10-10-10-10--14-14-----|
C---x--x--x--x--x--x--x--x--x--x--x--x--x--x--x--x---x--x-----|
G---8--8--8--8--8--8--8--8--8--8--8--8--8--8--8--8--12-12-----|
C-------------------------------------------------------------|

(continued)
d-------------------------------------------------------------|
A-------------------------------------------------------------|
F--14-14-14-14-14-14--16-16-16-16--17--14--10-10-10-10-10-10--|
C---x--x--x--x--x--x---x--x--x--x---x---x---x--x--x--x--x--x--|
G--12-12-12-12-12-12--14-14-14-14--15--12---8--8--8--8--8--8--|
C-------------------------------------------------------------|

(continued)
d-------------------------------------------------------------|
A-------------------------------------------------------------|
F--10-10-10-10-10-10-10-10-10-10--14-14-14-14-14-14-14-14--7--|
C---x--x--x--x--x--x--x--x--x--x---x--x--x--x--x--x--x--x--x--|
G---8--8--8--8--8--8--8--8--8--8--12-12-12-12-12-12-12-12--5--|
C-------------------------------------------------------------|


Bridge 3A (Guitar 1)
d-------------------------------------------------------------|
A-------------------------------------------------------------|
F-------------------------------------------------------------|
C--3-3-3-3-3-3-3-3-3-3-3-3-3-3-3-3--7-7-7-7-7-7-7--9-9-9-9-9--|
G--3-3-3-3-3-3-3-3-3-3-3-3-3-3-3-3--7-7-7-7-7-7-7--9-9-9-9-9--|
C--3-3-3-3-3-3-3-3-3-3-3-3-3-3-3-3--7-7-7-7-7-7-7--9-9-9-9-9--|

(continued)
d-------------------------------------------------------------|
A-------------------------------------------------------------|
F-------------------------------------------------------------|
C--10-9-7--3-3-3-3-3-3-3-3-3-3-3-3--10m-10m-9m-7m--7-7-7-7----|
G--10-9-7--3-3-3-3-3-3-3-3-3-3-3-3--10m-10m-9m-7m--7-7-7-7----|
C--10-9-7--3-3-3-3-3-3-3-3-3-3-3-3--10m-10m-9m-7m--7-7-7-7----|

(continued)
d-------------------------------------------------------------|
A-------------------------------------------------------------|
F-------------------------------------------------------------|
C--7-7-7-7--0-0-0-0-0-0-0-0-----------------------------------|
G--7-7-7-7--0-0-0-0-0-0-0-0-----------------------------------|
C--7-7-7-7--0-0-0-0-0-0-0-0-----------------------------------|


Bridge 3B (Guitar 2)
d-------------------------------------------------------------|
A-------------------------------------------------------------|
F--10---17-16--17------17-16--17-14---17-16--17-14---17-16----|
C---x----x--x---x-15----x--x---x--x----x--x---x--x----x--x----|
G---8---15-14--15--x---15-14--15-12---15-14--15-12---15-14----|
C-----------------15------------------------------------------|

(continued)
d-------------------------------------------------------------|
A-------------------------------------------------------------|
F--17------17-16--17-----17-16--17-14---17-16--17-------------|
C---x-15----x--x---x-15---x--x---x--x----x--x---x-12----------|
G--15--x---15-14--15--x--15-14--15-12---15-14--15--x----------|
C-----15-------------15---------------------------12----------|

Outro A (Guitar 1)
d-------------------------------------------------------------|
A-------------------------------------------------------------|
F-------------------------------------------------------------|
C--3-3-3--3--3-3-3-3--3-3-3--7-7-7--7--7-7-7--7-7-7--\--------|
G--3-3-3--3--3-3-3-3--3-3-3--7-7-7--7--7-7-7--7-7-7--\--------|
C--3-3-3--3--3-3-3-3--3-3-3--7-7-7--7--7-7-7--7-7-7--\--------|

(continued)
d------------------------------------------------------------|
A------------------------------------------------------------|
F------------------------------------------------------------|
C--3-3-3--3--3-3-3-3--3-3-3--7-7-7--7-7--0---12-\------------|
G--3-3-3--3--3-3-3-3--3-3-3--7-7-7--7-7--0---12-\------------|
C--3-3-3--3--3-3-3-3--3-3-3--7-7-7--7-7--0---12-\------------|


Outro B (Guitar 2)
d------------------------------------------------------------|
A------------------------------------------------------------|
F------------------------------------------------------------|
C----------17---------17-----------17-----------17-----------|
G------15----------15----------15-----------15---------------|
C--15-----------15---------15-----------15-------------------|

(continued)
d------------------------------------------------------------|
A------------------------------------------------------------|
F------------------------------------------------------------|
C----------17---------17-----------17-----------12-----------|
G------15----------15----------15-----------12---------------|
C--15-----------15---------15-----------12-------------------|


Outro C (Guitar 3)
d------------------------------------------------------------|
A------------------------------------------------------------|
F--10-10-10-10---12-10-9--9---10-10-10-10---12-10-9--9-------|
C---x--x--x--x----x--x-x--x----x--x--x--x----x--x-x--x-------|
G---8--8--8--8---10--8-7--7----8--8--8--8---10--8-7--7-------|
C------------------------------------------------------------|

(continued)
d------------------------------------------------------------|
A------------------------------------------------------------|
F--14-14-14-14--17^--17^-------------------------------------|
C---x--x--x--x---x----x---12---------------------------------|
G--12-12-12-12--15^--15^---x---------------------------------|
C-------------------------12---------------------------------|

Verse
Chorus
Riff 1
Verse, Fill
Chorus
Riff 2
Bridge 1
Solo A, B
Bridge 2A, 2B
Bridge 3A, 3B
Bridge 2A, 3B
Outro A, B
Outro A, B, C

_________________________________________________________________
Tap to rate this tab
# A B C D E F G H I J K L M N O P Q R S T U V W X Y Z