Guitaretab - guitar tabs
Song name
# A B C D E F G H I J K L M N O P Q R S T U V W X Y Z

Mudvayne - Under My Skin tab

Under My Skin-Mudvayne
L.D. 50

Drop B:
B F# B E G# C#


Intro: (0:00)-(0:50)
x3
e---------------------------------------------------------------
b---------------------------------------------------------------
g---------------------------------------------------------------
d---------------------------------------------------------------
a-1-1-0---0---3-3--0--0--3h5--0--1-1-0---0---3-3--0--0--3h5--0--
d-3-3-0---0---3-3--0--0--3h5--0--3-3-0---0---3-3--0--0--3h5--0--

e---------------------------------------------------------------
b---------------------------------------------------------------
g---------------------------------------------------------------
d---------------------------------------------------------------
a-1-1-0---0---3-3--0--0--3h5--0--1-1-0---0---5-3--0-------------
d-3-3-0---0---3-3--0--0--3h5--0--3-3-0---0---5-3--0-------------

Verses: (0:18)-(1:06)
x2
e------------------------------------
b-------6----------------6-----------
g---4--------4-------4--------4------
d-----3--------3-------3--------3----
a------------------------------------
d-0----------------0-----------------

e------------------------------------
b-------9----------------9-----------
g---7--------7-------7--------7------
d-----6--------6-------6--------6----
a------------------------------------
d-0----------------0-----------------

Chorus: (0:34)-(1:21)
x4
e-----------------------------------------------------------------
b-----------------------------------------------------------------
g-----------------------------------------------------------------
d-----------------------------------------------------------------
a-3p0-3p0-----3p0-3p0-----3p0-3p0-3p0-3p0-----3p0-3p0-----3p0-3p0-
d-3p0-3p0-----3p0-3p0-----3p0-3p0-3p0-3p0-----3p0-3p0-----3p0-3p0-

(1:38)
x3
e-----------------------------------------------------------------
b-----------------------------------------------------------------
g-----------------------------------------------------------------
d-----------------------------------------------------------------
a-----------------------------------------------------------------
d-0h3h4-0h5h6-0h7h8-0h3h4-0h5h6---0h3h4-0h5h6-0h7h8-0h3h4-0h5h6---

(1:50) Bass & Drums

(2:05)
e-------------
b-------------
g-------------
d-------------
a-0-0-0--0-0--
d-0-0-0--0-0--

(2:14)
x4
e-----------------------------------------------------------------
b-----------------------------------------------------------------
g-----------------------------------------------------------------
d-----------------------------------------------------------------
a-6-5-0-5-0-0-5-6-0-5-6-0-6-8-----6-5-0-5-0-0-5-6-0-5-6-0-6-8-----
d-6-5-0-5-0-0-5-6-0-5-6-0-6-8-----6-5-0-5-0-0-5-6-0-5-6-0-6-8-----

e---------------
b---------------
g---------------
d---------------
a-0-x--0--0--0--
d-0----0--0--0--
[ Tab from: http://www.guitaretab.com/m/mudvayne/28847.html ]
x3
e---------------------------------------------------------------
b---------------------------------------------------------------
g---------------------------------------------------------------
d---------------------------------------------------------------
a-1-1-0---0---3-3--0--0--3h5--0--1-1-0---0---3-3--0--0--3h5--0--
d-3-3-0---0---3-3--0--0--3h5--0--3-3-0---0---3-3--0--0--3h5--0--

e---------------------------------------------------------------
b---------------------------------------------------------------
g---------------------------------------------------------------
d---------------------------------------------------------------
a-1-1-0---0---3-3--0--0--3h5--0--1-1-0---0---5-3--0-------------
d-3-3-0---0---3-3--0--0--3h5--0--3-3-0---0---5-3--0-------------

Mini Solo: trem pick all w/ wah (2:48)

x2
e------------------------------------------------
b-13h15---15---15---15---13h15---15---15b--15b---
g------------------------------------------------
d------------------------------------------------
a------------------------------------------------
d------------------------------------------------

e------------------------------------------15----
b-13h15---15---15---15---13h15---15---15---------
g------------------------------------------------
d------------------------------------------------
a------------------------------------------------
d------------------------------------------------

(3:06)
pm top string
e-------------------------------------------------------
b-------------------------------------------------------
g-------5-4---------5-4-x----------5-4----------5-4-x---
d-------x-x---------x-x-x----------x-x----------x-x-x---
a-------3-2---------3-2------------3-2----------3-2-----
d-3-2-0-------3-2-0----------3-2-0--------3-2-0---------

e-------------------------------------------------------
b-------------------------------------------------------
g-------5-4---------5-4-x----------5-4----------5-4-----
d-------x-x---------x-x-x----------x-x----------x-x-----
a-------3-2---------3-2------------3-2----------3-2-----
d-3-2-0-------3-2-0----------3-2-0--------3-2-0---------

(3:14)
x7
e-----------------------------------------------------------------
b-----------------------------------------------------------------
g-----------------------------------------------------------------
d-----------------------------------------------------------------
a-3p0-3p0-----3p0-3p0-----3p0-3p0-3p0-3p0-----3p0-3p0-----3p0-3p0-
d-3p0-3p0-----3p0-3p0-----3p0-3p0-3p0-3p0-----3p0-3p0-----3p0-3p0-

then,

e-----------------------------------------------------------------
b-----------------------------------------------------------------
g-----------------------------------------------------------------
d-----------------------------------------------------------------
a-3p0-3p0-----3p0-3p0-----3p0-3p0-3p0-3p0-----3p0-3p0-------------
d-3p0-3p0-----3p0-3p0-----3p0-3p0-3p0-3p0-----3p0-3p0-------------


thatís all

trevor jones
timmy91199@yahoo.ca
Related for Under My Skin tab