Song name
# A B C D E F G H I J K L M N O P Q R S T U V W X Y Z

Mudvayne - Fall Into Sleep tab

Fall Into Sleep

..= palm mute
b= bend
p= pull off
h= hammer on
/= slide up
\= slide down
x= mute

Artist: Mudvayne
Song: Fall Into Sleep
Tuning: CGCFAD

Intro (clean)
|-----------------------------|
|-----------------------------|
|----7-7-7-7-7-7-7------------|   x4
|----x-x-x-x-x-x-x------------|
|3/5-5-5-5-5-5-5-5------------|
|0---0-0-0-0-0-0-0------------|


Verse (clean)
"Dreams of earthquakes.."
|-------------------------------------|
|-------------------------------------|
|---5h7-----7-----5h7---5h7-7h8p7-5---| x3
|-------------------------------------|
|---------3---5-----------------------|
|0------0-------0-----0---------------|

"Dreams of tidal waves..."
|-------------------------------------|
|-------------------------------------|
|----7---10---10-------5-------7------|
|--0---0----0----0---0---0---0---0----|
|-------------------------------------|
|8-----------------3-------5----------|

"Dreams of guns blazed..."
|-------------------------------------|
|-------------------------------------|
|---5h7-----7-----5h7---5h7-7h8p7-5---| x3
|-------------------------------------|
|---------3---5-----------------------|
|0------0-------0-----0---------------|

"Dreams of hollow pain.."
|-------------------------------------|
|-------------------------------------|
|----7---10---10-------5-------7------|
|--0---0----0----0---0---0---0---0----|
|-------------------------------------|
|8-----------------3-------5----------|


Pre-Chorus (clean)
"No more fallen..."
|-----------------------------|
|-----------------------------|
|----7-7-7-7-7-7-7------------|   x4
|----x-x-x-x-x-x-x------------|
|3/5-5-5-5-5-5-5-5------------|
|0---0-0-0-0-0-0-0------------|


Chorus (distorted)
"Fall Into Sleep.."
|------------------------------|-------------------------------------|
|------------------------------|-------------------------------------|
|------------14--10-9---9-10-7-|------------5-5----------------------|
|------------12---x-x-0-x--x-x-|------------2-2----------------------|
|------------12---8-7-0-7--8-5-|------------3-3----------------------|
|0-0-0-0-0-0-------------------|3-3-3-3-3-3-2-2-000------------------|

"I have a dream..."
|------------------------------|-----------------|-------------------------|
|------------------------------|-8--8--8--8--8--8|-8--8--8-10-10-10--------|
|------------14--10-9---9-10-7-|10-10-10--9--9--9|10-10-10--7--7--7--------|
|------------12---x-x-0-x--x-x-|10-10-10-10-10-10|10-10-10--7--7--7-5-5-3-3|
|------------12---8-7-0-7--8-5-|-8--8--8--7--7--7|-8--8--8--7--7--7-5-5-3-3|
|0-0-0-0-0-0-------------------|-----------------|------------------5-5-3-3|

|"Fall Into Sleep.."
|------------------------------|-------------------------------------|
|------------------------------|-------------------------------------|
|------------14--10-9---9-10-7-|------------5-5----------------------|
|------------12---x-x-0-x--x-x-|------------2-2----------------------|
|------------12---8-7-0-7--8-5-|------------3-3----------------------|
|0-0-0-0-0-0-------------------|3-3-3-3-3-3-2-2-000------------------|

"Hang onto a dream..."
|------------------------------|-----------------|-------------------------|
|------------------------------|-8--8--8--8--8--8|-8--8--8-10-10-10--------|
|------------14--10-9---9-10-7-|10-10-10--9--9--9|10-10-10--7--7--7--------|
|------------12---x-x-0-x--x-x-|10-10-10-10-10-10|10-10-10--7--7--7-5-5-3-3|
|------------12---8-7-0-7--8-5-|-8--8--8--7--7--7|-8--8--8--7--7--7-5-5-3-3|
|0-0-0-0-0-0-------------------|-----------------|------------------5-5-3-3|


Verse (distorted)
"Dreams of mourning grief.."
|-------------------------------------|
|-------------------------------------|
|---5h7-----7-----5h7---5h7-7h8p7-5---| x3
|-------------------------------------|
|---------3---5-----------------------|
|0------0-------0-----0---------------|
 .  . . . . . . . . . . . .

"Dreams of our disease.."
|-------------------------------------|
|-------------------------------------|
|--------5-5-5-5---------777-7-7-7----|
|3-3-3-3-3-3-3-3-5-5-5-5-555-5-5-5----|
|3-3-3-3-3-3-3-3-5-5-5-5-555-5-5-5----|
|3-3-3-3---------5-5-5-5--------------|
 . . . .         . . . .

"Dreams of fidelity.."
|-------------------------------------|
|-------------------------------------|
|---5h7-----7-----5h7---5h7-7h8p7-5---| x3
|-------------------------------------|
|---------3---5-----------------------|
|0------0-------0-----0---------------|

"Dreams of unity.."
|-------------------------------------|
|-------------------------------------|
|----7---10---10-------5-------7------|
|--0---0----0----0---0---0---0---0----|
|-------------------------------------|
|8-----------------3-------5----------|


Pre-Chorus (clean)
"All gone.."
|-----------------------------|
|-----------------------------|
|----7-7-7-7-7-7-7-7----------|   x2
|----x-x-x-x-x-x-x-x----------|
|3/5-5-5-5-5-5-5-5-5----------|
|0---0-0-0-0-0-0-0-0----------|


Chorus (distorted)
"Fall Into Sleep.."
|------------------------------|-------------------------------------|
|------------------------------|-------------------------------------|
|------------14--10-9---9-10-7-|------------5-5----------------------|
|------------12---x-x-0-x--x-x-|------------2-2----------------------|
|------------12---8-7-0-7--8-5-|------------3-3----------------------|
|0-0-0-0-0-0-------------------|3-3-3-3-3-3-2-2-000------------------|

"I have a dream..."
|------------------------------|-----------------|-------------------------|
|------------------------------|-8--8--8--8--8--8|-8--8--8-10-10-10--------|
|------------14--10-9---9-10-7-|10-10-10--9--9--9|10-10-10--7--7--7--------|
|------------12---x-x-0-x--x-x-|10-10-10-10-10-10|10-10-10--7--7--7-5-5-3-3|
|------------12---8-7-0-7--8-5-|-8--8--8--7--7--7|-8--8--8--7--7--7-5-5-3-3|
|0-0-0-0-0-0-------------------|-----------------|------------------5-5-3-3|

"Fall Into Sleep.."
|------------------------------|-------------------------------------|
|------------------------------|-------------------------------------|
|------------14--10-9---9-10-7-|------------5-5----------------------|
|------------12---x-x-0-x--x-x-|------------2-2----------------------|
|------------12---8-7-0-7--8-5-|------------3-3----------------------|
|0-0-0-0-0-0-------------------|3-3-3-3-3-3-2-2-000------------------|

"Hang onto a dream..."
|------------------------------|-----------------|-------------------------|
|------------------------------|-8--8--8--8--8--8|-8--8--8-10-10-10--------|
|------------14--10-9---9-10-7-|10-10-10--9--9--9|10-10-10--7--7--7--------|
|------------12---x-x-0-x--x-x-|10-10-10-10-10-10|10-10-10--7--7--7-5-5-3-3|
|------------12---8-7-0-7--8-5-|-8--8--8--7--7--7|-8--8--8--7--7--7-5-5-3-3|
|0-0-0-0-0-0-------------------|-----------------|------------------5-5-3-3|


Bridge (distorted)
"The angels are injured.."
|------------------------------------------|
|------------------------------------------|
|------12-12-12-------12-12-12-----10-10---|
|8-0-8--8--8--8-8-0-8--8--8--8-8-8--8--8---|
|8-0-8----------8-0-8----------8-8---------|
|8-0-8----------8-0-8----------8-8---------|

"Fall with broken.."
|------------------------------------------|
|------------------------------------------|
|------10-10-10-------10-10-10-----9-9-----|
|7-0-7--7--7--7-7-0-7--7--7--7-7-7-7-7-----|
|7-0-7----------7-0-7----------7-7---------|
|7-0-7----------7-0-7----------7-7---------|

"...burning wings, are we dead inside.."
|--------------------------------------------|
|--------------------------------------------|
|------15-15-15-14-14-14-12-12-12-14-14-14-14| x2
|0-0-0--0--0--0--0--0--0--0--0--0--0--0--0--0|
|0-0-0---------------------------------------|
|0-0-0---------------------------------------|

"We can't keep moving forward.."
|------------------------------------------|
|------------------------------------------|
|------12-12-12-------12-12-12-----10-10---|
|8-0-8--8--8--8-8-0-8--8--8--8-8-8--8--8---|
|8-0-8----------8-0-8----------8-8---------|
|8-0-8----------8-0-8----------8-8---------|

"Backwards with closed eyes.."
|------------------------------------------|
|------------------------------------------|
|------10-10-10-------10-10-10-----9-9-----|
|7-0-7--7--7--7-7-0-7--7--7--7-7-7-7-7-----|
|7-0-7----------7-0-7----------7-7---------|
|7-0-7----------7-0-7----------7-7---------|

"We're losing sight, all lost inside
|--------------------------------------------|
|--------------------------------------------|
|------15-15-15-14-14-14-12-12-12-14-14-14-14| x2
|0-0-0--0--0--0--0--0--0--0--0--0--0--0--0--0|
|0-0-0---------------------------------------|
|0-0-0---------------------------------------|


Pre-chorus (clean)
"No more fallen..."
|-----------------------------|
|-----------------------------|
|----7-7-7-7-7-7-7------------|   x2
|----x-x-x-x-x-x-x------------|
|3/5-5-5-5-5-5-5-5------------|
|0---0-0-0-0-0-0-0------------|


Chorus (distorted)
"Fall Into Sleep.."
|------------------------------|-----------------------------------|
|------------------------------|-----------------------------------|
|------------14--10-9---9-10-7-|------------5----------------------|
|------------12---x-x-0-x--x-x-|------------2---------3-3-3--------|
|------------12---8-7-0-7--8-5-|------------3---------3-3-3--------|
|0-0-0-0-0-0-------------------|3-3-3-3-3-3-2-0-0-0-0-3-3-3--------|

"I have a dream..."
|------------------------------|-----------------|-------------------------|
|------------------------------|-8--8--8--8--8--8|-8--8--8-10-10-10--------|
|------------14--10-9---9-10-7-|10-10-10--9--9--9|10-10-10--7--7--7--------|
|------------12---x-x-0-x--x-x-|10-10-10-10-10-10|10-10-10--7--7--7-5-5-3-3|
|------------12---8-7-0-7--8-5-|-8--8--8--7--7--7|-8--8--8--7--7--7-5-5-3-3|
|0-0-0-0-0-0-------------------|-----------------|------------------5-5-3-3|

"Fall Into Sleep.."
|------------------------------|-----------------------------------|
|------------------------------|-----------------------------------|
|------------14--10-9---9-10-7-|------------5----------------------|
|------------12---x-x-0-x--x-x-|------------2-------3-3-3----------|
|------------12---8-7-0-7--8-5-|------------3-------3-3-3----------|
|0-0-0-0-0-0-------------------|3-3-3-3-3-3-2-0-0-0-3-3-3----------|

                            these two measures are played twice this time)
"Hang onto a dream..."               |----------------------------------------|
|------------------------------|-----------------|-----------------|----------|
|------------------------------|-8--8--8--8--8--8|-8--8--8-10-10-10|----------|
|------------14--10-9---9-10-7-|10-10-10--9--9--9|10-10-10--7--7--7|----------|
|------------12---x-x-0-x--x-x-|10-10-10-10-10-10|10-10-10--7--7--7|-5-5-3-3--|
|------------12---8-7-0-7--8-5-|-8--8--8--7--7--7|-8--8--8--7--7--7|-5-5-3-3--|
|0-0-0-0-0-0-------------------|-----------------|-----------------|-5-5-3-3--|


Outro (clean)
"All gone..."
|-----------------------------|
|-----------------------------|
|----7-7-7-7-7-7-7------------|   x4
|----x-x-x-x-x-x-x------------|
|3/5-5-5-5-5-5-5-5------------|

"All gone..."
|-------------------------------------|
|-------------------------------------|
|----7---10---10-------5-------7------|
|--0---0----0----0---0---0---0---0----|
|----------------------------------0--|
|8-----------------3-------5-------0--|

There it is.  I have the official sheet music for this so THIS IS 100% CORRECT.  I also 
the "Pot (ver 5)" tab for "The Pot" by Tool. You might want to check that one out, too.
Tap to rate this tab
# A B C D E F G H I J K L M N O P Q R S T U V W X Y Z