Song name
# A B C D E F G H I J K L M N O P Q R S T U V W X Y Z

Mudvayne - I Cant Wait tab

Artist: Mudvayne
Song: I Canít Wait
Album: Mudvayne
Tuning: Drop c
Difficulty: Beginner
Tabbed By: Bill Dowdle

This is very close to 100% and its very good for beginners to practice basic skills 
awareness, palm muting, hammer-ons, etc.).

INTRO:
	                             (x3)
|------------------|--------------------------------------|
|------------------|--------------------------------------|
|------------------|--------------------------------------|
|----Bass-Only-----|-151412121415151412121415151412151412-|
|------------------|--------------------------------------|
|------------------|--------------------------------------|
		     . . . . . . . . . . . . . . . . . .

|---------------------------------------|
|---------------------------------------|
|---------------------------------------|
|---------------------------------------|
|-------------4-4-6p5-------------------|
|-0-0-0-0-0-0---------------------------|
  . . . . . . . .

VERSE 1:
	           (x7)
|---------------------------------------|
|---------------------------------------|
|---------------------------------------|
|---------------------------------------|
|-6-5-5-6-5-5-6p5-6-5-5-6-----5h6p5-----|
|---------------------------------------|
    . .   . .       . .

CHORUS:

|----------------------------------------------------|
|----------------------------------------------------|
|----------------------------------------------------|
|----------------------------------------------------|
|-5h6p5-4~-5h6p5---5h6p5-4~-0-1-2-3-0-6-5-4-0-1-2-4~-|
|---------------------------0-1-2-3-0-6-5-4-0-1-2----|
                            . . . . . . . . . . .

|---------------------------------------|
|---------------------------------------|
|---------------------------------------|
|---------------------------------------|
|-5h6p5---5h6p5-4~----------------------|
|---------------------------------------|

VERSE 2 (PLAY VERSE 1)
CHORUS
BREAKDOWN:
		 (x3)
|-----------------------------------------------|
|-----------------------------------------------|
|-----------------------------------------------|
|-----------------------------------------------|
|-0000000-00000-00000-0000000-00000-0000--------|
|-0000000-00000-00000-0000000-00000-0000-5/12/0-|

BRIDGE (PLAY INTRO)

CHORUS x1
----------------------------------------------------------------------------
Tab Legend
----------------------------------------------------------------------------
.=palm mute
h=hammer-on
p=pull-off
~=hold note
(x1)=repeat once, (x2)=repeat twice (play 3 times), etc.
/=slide
Tap to rate this tab
# A B C D E F G H I J K L M N O P Q R S T U V W X Y Z