Song name
# A B C D E F G H I J K L M N O P Q R S T U V W X Y Z

Mudvayne - Silhouette tab

Band- Mudvayne
Song- Silhouette

Tuning C-G-C-F-A-D

**In this song you have to understand that Ryan Martinie (bass) fluctuates and shape
Greg’s chords. For instance, the chorus, it sounds like they both play two different
chords. If you listen very closely, only Ryan changes notes. Mudvayne’s known for this
illusion type playing between Greg and Ryan.

Intro Riff :
|---------------------------------------------|
|---------------------------------------------|
|10------------------------9------------------|        
| x--x12-------------------x--x12-------------| 
| 8 ---------0-2-0-2-0-----7--------0-2-0-2-0-|         
|------------0-2-0-2-0--------------0-2-0-2-0-| 
              ---P.M—	            —P.M.— 
|-------------------------------------------------------|
|-------------------------------------------------------|
|10 --------------------14-------9----------------------|
| x--x8-----------------x--x4----x–x8-------------------|
| 8 -------0-2-0-2-0----12-------7------2-0-2-0-2-0-2-0-|
|----------0-2-0-2-0--------------------2-0-2-0-2-0-2-0-|
           ---P.M---	             -------P.M--------
Chorus:
|--------------------------------------------------------------------------------|
|--------------------------------------------------------------------------------|
|9-9-9-9-9-9-9---9-9-9------------9-9-9-9-9-9-9----------------------------------|
|7-7-7-7-7-7-7---7-7-7------------7-7-7-7-7-7-7----------------------------------|
|7-7-7-7-7-7-7---7-7-7--0-2-3-2---7-7-7-7-7-7-7--2-0-0-2-0-0-2-0-----------------|
|7-7-7-7-7-7-7---7-7-7--0-2-3-2---7-7-7-7-7-7-7--2-0-0-2-0-0-2-0-----------------|
                        --P.M--                  (tricky single palm mutings on the zero's)
Verse:
|------------------------------------------------------------------|
|------------------------------------------------------------------|
|------------------------------------------------------------------|
|8-8-8-8-8-8-8-8-8-8-8-8-12-12-12-12-7-7-7-7-7-7-7-3-3-3-5-3-3-3-3-|
|8-8-8-8-8-8-8-8-8-8-8-8-12-12-12-12-7-7-7-7-7-7-7-3-3-3-5-3-3-3-3-|
| -----------------------------------------------------------------|
   
First Bridge is the same as intro.
I’ll post up the rest of the song when I can figure it out, there's alot of hidden wah-
side effects in the chorus and 2nd bridge(s)
Thanx and feel free to correct me.
Tap to rate this tab
 
# A B C D E F G H I J K L M N O P Q R S T U V W X Y Z