Song name
# A B C D E F G H I J K L M N O P Q R S T U V W X Y Z

Mudvayne - Never Enough tab

Song is in drop D & should be pretty accurate. Strumming is only approx. Great
song- they still got it.

Key- = slide  >- bend in reverse   h -hammer on

Intro
10-10--10-10-10--6-6--1-1-5-5-10-10-10-10-6-6-8------------------------|
10-10--10-10-10--6-6--1-1-5-5-10-10-10-10-6-6-8------------------------|
13-13--13-12-12--8-8--1-1-5-5-13-13-12-12-8-8-10-----------------------|
----------------------3-3----------------------------------------------|
-----------------------------------------------------------------------|
-----------------------------------------------------------------------|
Chorus			Solo
10-X4--6--6--6=--3----{------------------------------------------------|
10-----6--6-----------{------------------------------------------------|
12-----8--8---8=-5----{------------------------------------------------|
12-----8--7-----------{-----------------3-5--5-----------------5-------|
----------------------{-->7=6-4-h6-4----4------4-6=8-8-6=4-6-4---------|
----------------------{------------------------------------------------|

10-10-8--8--7--7--6-0-2-3---3-2---2-----------10-X7-8-X7-7-X4-6-X4-5X4-|
10-10-8--8--7--7--6---------------------------10----8----7----6----5---|
10-10-10-10-10-10-6---------------------------10----10---10---6----5---|
--------------------------3-----3--------------------------------------|
------------------------------------6-5-5-5-5--------------------------|
-----------------------------------------------------------------------|
Tap to rate this tab
# A B C D E F G H I J K L M N O P Q R S T U V W X Y Z