Song name
# A B C D E F G H I J K L M N O P Q R S T U V W X Y Z

Mudvayne - Just tab

Band - Mudvayne
Song - Just
Album - Lost And Found (2005)
Tuning - CGCFAD

Intro - Guitar 1
|---------------------------------|
|---------------------------------|
|---------------------------------|
|---------------------------------|
|-2-2-2---------------------------|
|-------3-3-3-0-0-0-3-2-0-2-3-2-0-|

Chorus
|---------------------------------|
|---------------------------------|
|---------------------------------|
|-4-4-4---------------------------|
|-2-2-2-3-3-3-0-0-0-3-2-0-2-3-2-0-|
|-------3-3-3-0-0-0-3-2-0-2-3-2-0-|

|-----------------------------------------------------------------|
|-----------------------------------------------------------------|
|-----------------------------------------------------------------|
|---------------------------------4-4-4---------------------------|
|-3-3-3-6-6-6-5-5-5-3-3-3-5-5-5-5-2-2-2-3-3-3-0-0-0-3-2-0-2-3-2-0-|
|-3-3-3-6-6-6-5-5-5-3-3-3-5-5-5-5-------3-3-3-0-0-0-3-2-0-2-3-2-0-|

|-------------------------------------|
|-------------------------------------|
|-------------------7-7-7-10-10-10-10-|
|-------------------x-x-x-x--x--x--x--|
|-3-3-3-6-6-6-5-5-5-5-5-5-8--8--8--8--|
|-3-3-3-6-6-6-5-5-5-------------------|

Verse
|-------------------------------|
|-------------------------------|
|-------------------------------|
|-------------------------------|
|-0-0-0-----0-0-0-0-0-0-0-0-0-0-|
|-0-0-0-----0-0-0-0-0-0-0-0-0-0-|
  . . .     . . . . . . . . . .

|---------------------------------|
|---------------------------------|
|---------------------------------|
|---------------------------------|
|-------5-5-5-------5-5-5---------|
|-3-3-3-------3-3-3-------5-5-6-6-|

Chorus
|---------------------------------|
|---------------------------------|
|---------------------------------|
|-4-4-4---------------------------|
|-2-2-2-3-3-3-0-0-0-3-2-0-2-3-2-0-|
|-------3-3-3-0-0-0-3-2-0-2-3-2-0-|

|-----------------------------------------------------------------|
|-----------------------------------------------------------------|
|-----------------------------------------------------------------|
|---------------------------------4-4-4---------------------------|
|-3-3-3-6-6-6-5-5-5-3-3-3-5-5-5-5-2-2-2-3-3-3-0-0-0-3-2-0-2-3-2-0-|
|-3-3-3-6-6-6-5-5-5-3-3-3-5-5-5-5-------3-3-3-0-0-0-3-2-0-2-3-2-0-|

|-------------------------------------|
|-------------------------------------|
|-------------------7-7-7-10-10-10-10-|
|-------------------x-x-x-x--x--x--x--|
|-3-3-3-6-6-6-5-5-5-5-5-5-8--8--8--8--|
|-3-3-3-6-6-6-5-5-5-------------------|

Verse
|-------------------------------|
|-------------------------------|
|-------------------------------|
|-------------------------------|
|-0-0-0-----0-0-0-0-0-0-0-0-0-0-|
|-0-0-0-----0-0-0-0-0-0-0-0-0-0-|
  . . .     . . . . . . . . . .

|---------------------------------|
|---------------------------------|
|---------------------------------|
|---------------------------------|
|-------5-5-5-------5-5-5---------|
|-3-3-3-------3-3-3-------5-5-6-6-|

Chorus
|---------------------------------|
|---------------------------------|
|---------------------------------|
|-4-4-4---------------------------|
|-2-2-2-3-3-3-0-0-0-3-2-0-2-3-2-0-|
|-------3-3-3-0-0-0-3-2-0-2-3-2-0-|

|-----------------------------------------------------------------|
|-----------------------------------------------------------------|
|-----------------------------------------------------------------|
|---------------------------------4-4-4---------------------------|
|-3-3-3-6-6-6-5-5-5-3-3-3-5-5-5-5-2-2-2-3-3-3-0-0-0-3-2-0-2-3-2-0-|
|-3-3-3-6-6-6-5-5-5-3-3-3-5-5-5-5-------3-3-3-0-0-0-3-2-0-2-3-2-0-|

|-------------------------------------|
|-------------------------------------|
|-------------------7-7-7-10-10-10-10-|
|-------------------x-x-x-x--x--x--x--|
|-3-3-3-6-6-6-5-5-5-5-5-5-8--8--8--8--|
|-3-3-3-6-6-6-5-5-5-------------------|

Bridge
|---------------------------------|
|---------------------------------|
|-5-7-8-7-5-8-5-7-5-7-8-7-5-7-5-3-|
|---------------------------------|
|---------------------------------|
|---------------------------------|
  . . . . . . . . . . . . . . . . 

|-------------------------------------------------------------|
|-------------------------------------------------------------|
|-5-7-8-7-5-8-5-7-5-7-8-7-5-7-5-7-8-7-5-8-5-7-5-7-8-7-5-7-5-3-|
|-------------------------------------------------------------|
|-------------------------------------------------------------|
|-------------------------------------------------------------|
  . . . . . . . . . . . . . . . . . . . . . . . . . . . . . . 

|-----------------------------|
|-----------------------------|
|-5-7-8-7-5-8-5-7-5-7-8-7-5-7-|
|-------------------x-x-x-x-x-|
|-------------------5-6-5-3-5-|
|-----------------------------|
  . . . . . . . . .

|----------------------------------|
|----------------------------------|
|---5/8---7-7---10---7-8-7-5-7-----|
|---x-x---x-x---x----x-x-x-x-x-----|
|-0-3/6---5-5---8----5-6-5-3-5-2-3-|
|-0-----0-----0----0-----------2-3-|
  .     .     .    .           . .

|------------------------------|
|------------------------------|
|---5/8---7-7---10---7-8-7-5-7-|
|---x-x---x-x---x----x-x-x-x-x-|
|-0-3/6---5-5---8----5-6-5-3-5-|
|-0-----0-----0----0-----------|
  .     .     .    .     

|---------------------------------|
|---------------------------------|
|---------------------------------|
|---------------------------------|
|-2-2-2---------------------------|
|-------3-3-3-0-0-0-3-2-0-2-3-2-0-|

Chorus
|---------------------------------|
|---------------------------------|
|---------------------------------|
|-4-4-4---------------------------|
|-2-2-2-3-3-3-0-0-0-3-2-0-2-3-2-0-|
|-------3-3-3-0-0-0-3-2-0-2-3-2-0-|

|-----------------------------------------------------------------|
|-----------------------------------------------------------------|
|-----------------------------------------------------------------|
|---------------------------------4-4-4---------------------------|
|-3-3-3-6-6-6-5-5-5-3-3-3-5-5-5-5-2-2-2-3-3-3-0-0-0-3-2-0-2-3-2-0-|
|-3-3-3-6-6-6-5-5-5-3-3-3-5-5-5-5-------3-3-3-0-0-0-3-2-0-2-3-2-0-|

|-------------------------------------|
|-------------------------------------|
|-------------------7-7-7-10-10-10-10-|
|-------------------x-x-x-x--x--x--x--|
|-3-3-3-6-6-6-5-5-5-5-5-5-8--8--8--8--|
|-3-3-3-6-6-6-5-5-5-------------------|

Outro
|--------------------|
|--------------------|
|--------------------|
|--------------------|
|-0-0-0------0-0-0-0-|
|-0-0-0------0-0-0-0-|
  . . .      . . . .
Tap to rate this tab
 
# A B C D E F G H I J K L M N O P Q R S T U V W X Y Z