Song name
# A B C D E F G H I J K L M N O P Q R S T U V W X Y Z

Mudvayne - Do What You Do tab

Hey this is my first tab i just figured this out by ear.Rate it, message me with any 
 or requests

Drop C tuning (C G C F A D) im not sure how many times it repeats

vibrato ~

D ---------------|
A ---------------|
F ---------------|
C -------7~7~77~-|
G 3-5----5~5~-5~-|
C ---3-0-5~5~-5~-|
         ^
         here if you want u can play an open C
D ---------------|
A ---------------|
F ---------------|
C -------7~7~77~-|
G 3-5----5~5~-5~-|
C ---3-0-5~5~-5~-|

D ---------------|
A ---------------|
F ---------------|
C -------7~7~77~-|
G 3-5----5~5~-5~-|
C ---3-0-5~5~-5~-|

D --------------|
A --------------|
F --0-0---------|
C 3~~3~3--------|
G 3~~3~3--------|
C 3~~3~3--------|
         ^
         here if you want u can play an open C
Tap to rate this tab
# A B C D E F G H I J K L M N O P Q R S T U V W X Y Z