Guitaretab - guitar tabs
Song name
# A B C D E F G H I J K L M N O P Q R S T U V W X Y Z

Mumford And Sons - The Cave tab

This is the for the acoustic guitar. Please post corrections in the comments.

Capo on 2nd fret.

Tuning(low to high) : D A D F# B E


Intro
E ||-------------------------------------------------|
B ||-------------------------------------------------|
F#||-------------------0-------0-------0-------------|
D ||--/4--2--0-------0---0---0---0---0---0-----------|
A ||------------0--2-------2-------0-------0---------|
D ||-------------------------------------------------| x3
                                                     |
E ||-------------------------------------------------|
B ||-------------------------/5---0------------------|
F#||------0-------0----------/5---0------------------|
D ||----0---0---0---0------0-------------------------|
A ||-------------------------------------------------|
D ||--4-------0--------0-----------------------------|

Verse 1
E ||-------------------------------------------------|
B ||-------------------------------------------------|
F#||-------------------0-------0-------0-------------|
D ||--/4--2--0-------0---0---0---0---0---0-----------|
A ||------------0--2-------2-------0-------0---------|
D ||-------------------------------------------------| x3
                                                     |
E ||-------------------------------------------------|
B ||-------------------------/5---0------------------|
F#||------0-------0----------/5---0------------------|
D ||----0---0---0---0------0-------------------------|
A ||-------------------------------------------------|
D ||--4-------0--------0-----------------------------|

Verse 2
E ||-------------------------------------------------|
B ||-------------------------------------------------|
F#||-------------------0-------0-------0-------------|
D ||--/4--2--0-------0---0---0---0---0---0-----------|
A ||------------0--2-------2-------0-------0---------|
D ||-------------------------------------------------| x3
                                                     |
E ||-------------------------------------------------|
B ||-------------------------/5----------------------|
F#||------0-------0----------/5----------------------|
D ||----0---0---0---0------0--------0--0--0--0-------|
A ||--------------------------------0--0--0--0-------|
D ||--4-------0--------0------------0--0--0--0-------|Last part is P.M
[ Tab from: http://www.guitaretab.com/m/mumford-and-sons/200785.html ]
Chorus
E ||--------------------------------------------------------------------|
B ||--------------------------------------------------------------------|
F#||--------------------------------------------------------------------|
D ||-0--0--0--0--5--5--0--0--0--0--0--0--5--5--0--0--5--5--0--0---------|
A ||-0--0--0--0--5--5--0--0--0--0--0--0--5--5--0--0--5--5--0--0---------|
D ||-0--0--0--0--5--5--0--0--0--0--0--0--5--5--0--0--5--5--0--0---------|P.M
                                                                        |
E ||--------------------------------------------------------------------|
B ||--------------------------------------------------------------------|
F#||--------------------------------------------------------------------|
D ||-7--7--7--7--9--9--9--9--5--5--0--0--9--9--9--9--5--5--0--0---------|
A ||-7--7--7--7--9--9--9--9--5--5--0--0--9--9--9--9--5--5--0--0---------|
D ||-7--7--7--7--9--9--9--9--5--5--0--0--9--9--9--9--5--5--0--0---------|P.M
                                                                        |
E ||----------------------------|
B ||----------------------------|
F#||----------------------------|
D ||-5--5--0--0--7--7--7--7--7--|
A ||-5--5--0--0--7--7--7--7--7--|
D ||-5--5--0--0--7--7--7--7--7--|P.M


E ||-------------------------------------------------|
B ||-------------------------------------------------|
F#||-------------------0--------0-------0------------|
D ||--/4-4-4--2---0------0----0---0---0---0---0------|
A ||------------0---2-------2-------0-------0--------|
D ||-------------------------------------------------|


E ||-------------------------------------------------|
B ||-------------------------------------------------|
F#||-------------------0--------0-------0------------|
D ||--/4--2--0-------0---0---0----0---0---0----------|
A ||------------0--2-------2--------0-------0--------|
D ||-------------------------------------------------| x2
                                                     |
E ||-------------------------------------------------|
B ||-------------------------/5---0------------------|
F#||------0-------0----------/5---0------------------|
D ||----0---0---0---0------0-------------------------|
A ||-------------------------------------------------|
D ||--4-------0--------0-----------------------------|

The rest of the song is pretty much the same, just listen to it and you'll figure it out. 
Related for The Cave tab
The Cave chords by Mumford And Sons