Song name
# A B C D E F G H I J K L M N O P Q R S T U V W X Y Z

Mumford And Sons - Not In Nottingham chords

Highlighted       Show chord diagrams
-----------------------------------------------------------------------------
			                    Not In Nottingham - Mumford and Sons
-----------------------------------------------------------------------------
Tabbed by: Macheeoo
Email: macheeoo@yahoo.com

Tuning: Standard

    A               A               D                  A             E
e|---------------------------------------------------------------------------|
B|---------------------------------------------------------------------------|
G|--------------------------------------2-----2----2-------------------------|
D|-----2-----2---------2-----2------0------0-----4------2-----2--------------|
A|--0-----0-----4---0-----0-----4--------------------0-----0-----4----2---2--|
E|------------------------------------------------------------------0---0---4|          x2

A
Every town,
A
Has it's up and
D
Downs, sometimes the
A
Ups, outnumber the
E
Downs, but not in Notting-
A    A7                  
Ham, well i'm inclined to
D                          A      E
Believe, if we weren't so down
              A
we'd up and leave, we'd up and
E
Fly if we had wings for flyin'
D
Can't you see these tears we're crying
E             E7            A     E
Is there some happiness for me
                    A    A7
Well not in Nottingham

'Whistle part'

D   A   E   A

A7                  
Well i'm inclined to
D                          A       E
Believe, if we weren't so down, oh darlin'
             A
We'd up and leave, we'd up and
E
Fly if we had wings for flyin'
D
Can't you see these tears we're crying
E                 E7            A     E
And is there some happiness for me
                     A --
Well, not in Nottingham
Tap to rate this tab
 
# A B C D E F G H I J K L M N O P Q R S T U V W X Y Z