Song name
# A B C D E F G H I J K L M N O P Q R S T U V W X Y Z

Mumford And Sons - For Those Below tab

-------------------------------------------------------------------------------
                             FOR THOSE BELOW - Mumford and Sons
-------------------------------------------------------------------------------
Tabbed by: James Black
E-mail: james.reid.black@gmail.com

Tuning: DADGBE
    D                                          D/C                      
e|--------------------------------------------------------------------------------------|
B|--10----------10------10h12----------10------10----------10------10h12----------10----|
G|----------11---------------------11------------------11---------------------11--------|
D|------12----------12---------12----------12------10----------10---------10----------10|
A|--------------------------------------------------------------------------------------|
D|--------------------------------------------------------------------------------------|
    F#sus4                                 D5/A#           Gm
e|--------------------------------------------------------------------------------------|
B|--10---------10-----10h12---------10-----10--------10-----8--------8------------------|
G|---------11-------------------11----------------7---------------7---------------------|
D|------9----------9---------9----------9------8---------8-----8--------8---------------|
A|--------------------------------------------------------------------------------------|
D|--------------------------------------------------------------------------------------|
    D                Dsus4            Em               C#dim
e|--------------------------------------------------------------------------------------|
B|--7--------7-----7p8--------8-----8/5--------5-------------5--------------------------|
G|--------7----------------7----------------4--------4h6-----------0--------------------|
D|-----7--------7-------7--------7-------5--------5-------5-----5-----------------------|
A|--------------------------------------------------------------------------------------|
D|--------------------------------------------------------------------------------------|
    D
e|--------------------------------------------------------------------------------------|
B|--3-----3-------------3----------------3----------------3-----------------------------|
G|-----2--------0h2--------2-----0h2--------2-----0h2--------2--------------------------|
D|--------------------------------------------------------------------------------------|
A|--------------------------------------------------------------------------------------|
D|--0--------0--0----0--------0--0----0--------0--0----0--------------------------------|

************************************

| /   slide up
| \   slide down
| h   hammer-on
| p   pull-off
| ~   vibrato
| +   harmonic
| x   Mute note
| b   Bend
| pb  Pre-bend
| br  Bend release
| pbr Pre-bend release
| brb Bend release bend

************************************
Tap to rate this tab
# A B C D E F G H I J K L M N O P Q R S T U V W X Y Z