Song name
# A B C D E F G H I J K L M N O P Q R S T U V W X Y Z

Mumford And Sons - Home tab

Tab rating 'intermediate' because of the tuning;
if you are a novice you CAN still learn this easily as long as you can get the tuning.

Note: This is the same tuning as 'The Cave - Mumford and Sons' which I would recommend 
learning as well.

Tuning: Open D - Capo: 3rd Fret

Playing Order:
Verse #1
Bridge
Verse #2
Bridge x2
Chorus x4

Verse: #1
D : ---------------------------------|
A : ---------------------------------|
F#: -0-0-0-0-5-5-5-5-0-0-0-0-0-0-7-7-|
D : ---------------------------------|
A : ---------------------------------|
D : 9-9-9-9-5-5-5-5-0-0-0-0-0-0-7-7--|

Bridge:
D : ---------------------------------|
A : ---------------------------------|
F#: -3-3-3-3-5-5-5-5-0-0-0-0-0-0-0-0-|
D : ---------------------------------|
A : ---------------------------------|
D : 4-4-4-4-5-5-5-5-0-0-0-0-7-7-8-8--|

Verse: #2
D : ---------------------------------|
A : ---------------------------------|
F#: -8-8-8-8-5-5-5-5-0-0-0-0-0-0-7-7-|
D : ---------------------------------|
A : ---------------------------------|
D : 9-9-9-9-5-5-5-5-0-0-0-0-0-0-7-7--|

Chorus:
D : ---------------------------------|
A : ---------------------------------|
F#: -7-7-7-7-7-7-7-7-5-5-5-5-5-5-5-5-|
D : ---------------------------------|
A : ---------------------------------|
D : 7-7-7-7-7-7-7-7-5-5-5-5-5-5-5-5--|

D : ---------------------------------|
A : ---------------------------------|
F#: -0-0-0-0-0-0-0-0-0-0-0-0-0-0-0-0-|
D : ---------------------------------|
A : ---------------------------------|
D : 0-0-0-0-0-0-0-0-0-0-0-0-0-0-0-0--|

Strumming can be implementing into the last two Choruses.
Tap to rate this tab
# A B C D E F G H I J K L M N O P Q R S T U V W X Y Z