Song name
# A B C D E F G H I J K L M N O P Q R S T U V W X Y Z

Mumford And Sons - Whispers In The Dark tab

Whispers In The Dark - Mumford And Sons - Intro

Tuning: dBGDAD


e------------------------------------------------------------------------------|
B------------------------------------------------------------------------------|
G-9-9-9-9-9-9-9-9-7-7-7-7-7-7-7-7-11-11-11-11-11-11-11-11-11-11-11-11-11-11-11-|
D-0-0-0-0-0-0-0-0-0-0-0-0-0-0-0-0-0-0-0-0-0-0-0-0-0-0-0-0-0-0-0-0-0-0-0-0-0-0--|
A------------------------------------------------------------------------------|
E-9-9-9-9-9-9-9-9-7-7-7-7-7-7-7-7-12-12-12-12-12-12-12-12-12-12-12-12-12-12-12-|

e---------------------------------------0----------|
B-----------------------------------------3--------|
G-11-9-9-9-9-9-9-9-9-7----------------------2------|
D-0--0-0-0-0-0-0-0-0-0--Let ring--------------0----|
A-----------------------------------------------0--|
E-12-9-9-9-9-9-9-9-9-7---------------------------0-|

Good luck!
Tap to rate this tab
# A B C D E F G H I J K L M N O P Q R S T U V W X Y Z