Song name
# A B C D E F G H I J K L M N O P Q R S T U V W X Y Z

Mumm-ra - When The Lights Go Out tab

#--------------------------------PLEASE NOTE--------------------------------#
This file is the author's own work and represents their interpretation of the
song. You may only use this file for private study, scholarship, or research.
#---------------------------------------------------------------------------#
#- File created with Instab - http://www.pconline.com/~smcarey/instab.html -#
#---------------------------------------------------------------------------#

Author/Artist: Mumm-ra
Title: When the lights go out
Album: Out of the question
Transcribed by: the_todd
Email: chiz65 at hotmail dot com

Okay, here it is, easily mumm-ra's best song and one of my favourites ever. I've never 
before and i'm sure there'll be lots of errors. Give me plenty of criticism please-

if I'm playing it wrong, I want to know how to get it right.


Capo 2nd fret


------------------------------------------------------------------------------|
-3-----3-3-----3-3-----3-3-------3--------------------------------------------|
---0-------0-------0---------0-----0---0--------------------------------------|
-----0-------0-------0-----0---0----------------------------------------------|
-3-------2-------0-------2----------0h2---------------------------------------|
------------------------------------------------------------------------------|


------------------------------------------------------------------------------|
-3-----3-3-----3-3-----3-3-------3--------------------------------------------|
---0-------0-------0---------0-----0---0--------------------------------------|
-----0-------0-------0-----0---0-----0----------------------------------------|
-3-------2-------0------------------------------------------------------------|
-------------------------3----------------------------------------------------|


------------------------------------------------------------------------------|
-3-----3-3-----3-3-----3-------3----------------------------------------------|
---0-------0-------0-------0-----0-----0--------------------------------------|
-----0-------0-------0---0---0------------------------------------------------|
-3-------2-------0-----2-----------0h2----------------------------------------|
------------------------------------------------------------------------------|
    why should it take us such a long long time


------------------------------------------------------------------------------|
-3-----3-3-----3-3-----3-----3-----3-3-----3-3-----3-3-------3----------------|
---0-------0-------0-----------0-------0-------0---------0-----0---0----------|
-----0-------0-------0-----------0-------0-------0-----0---0-----0------------|
-3-------2-------0-----------3-------2-------0--------------------------------|
-----------------------------------------------------3------------------------|
    why should we wait, how could we form a line?


------------------------------------------------------------------------------|
-3-----3-3-----3-3-----3-3-------3--------------------------------------------|
---0-------0-------0---------0-----0---0--------------------------------------|
-----0-------0-------0-----0---0-----0----------------------------------------|
-3-------2-------0------------------------------------------------------------|
-------------------------3----------------------------------------------------|
     well i'm not crying but the face i'm in


------------------------------------------------------------------------------|
-3-----3-3-----3-3-----3-3----------------------------------------------------|
---0-------0-------0-------0--------------------------------------------------|
-----0-------0-------0-------0------------------------------------------------|
-3-------2-------0-------3----------------------------------------------------|
------------------------------------------------------------------------------|
      it sees indifference as a mortal sin


------5-----5\2--2-------2/3--3-----3-3-3------3/5-5-----5-2-----2/3-3--------|
--3-----0----------0------------0---------0----------0-------0---------0---0--|
----------0----------0------------0---------0----------0-------0---------0----|
------------------------------------------------------------------------------|
-3/5--5-----5\2--2-------2/3--3-------3--------3/5-5-------2-----2/3-3--------|
------------------------------------------------------------------------------|
      its not as if i knew / that this would come and come so soon


------------------------------------------------------------------------------|
----0------0-0------0h1---1-----1-----1---------------------------------------|
------0--------0------------0-----0-----0-------------------------------------|
--------0--------0------------0-----0-----------------------------------------|
-------------2------2/3---3---------------------------------------------------|
----3------3------------------------------------------------------------------|
      no of course i'm not about to change
      but everytime the lights go out			(play this x4)
      all i ever see is you
      something i would change but i dont know how


------------------------------------------------------------------------------|
-3-----3-3-----3-3-----3-3-------3--------------------------------------------|
---0-------0-------0---------0-----0---0--------------------------------------|
-----0-------0-------0-----0---0----------------------------------------------|
-3-------2-------0-------2----------0h2---------------------------------------|
------------------------------------------------------------------------------|


------------------------------------------------------------------------------|
-3-----3-3-----3-3-----3-3-------3--------------------------------------------|
---0-------0-------0---------0-----0---0--------------------------------------|
-----0-------0-------0-----0---0-----0----------------------------------------|
-3-------2-------0------------------------------------------------------------|
-------------------------3----------------------------------------------------|


------------------------------------------------------------------------------|
-3-----3-3-----3-3-----3-------3----------------------------------------------|
---0-------0-------0-------0-----0-----0--------------------------------------|
-----0-------0-------0---0---0------------------------------------------------|
-3-------2-------0-----2-----------0h2----------------------------------------|
------------------------------------------------------------------------------|
     and i play quiet ot the house i'm in


------------------------------------------------------------------------------|
-3-----3-3-----3-3-----3-3----------------------------------------------------|
---0-------0-------0-------0--------------------------------------------------|
-----0-------0-------0-------0------------------------------------------------|
-3-------2-------0-------3----------------------------------------------------|
------------------------------------------------------------------------------|
     its in this silence that the things begin


------5-----5\2--2-------2/3--3-----3-3-3------3/5-5-----5-2-----2/3-3--------|
--3-----0----------0------------0---------0----------0-------0---------0---0--|
----------0----------0------------0---------0----------0-------0---------0----|
------------------------------------------------------------------------------|
-3/5--5-----5\2--2-------2/3--3-------3--------3/5-5-------2-----2/3-3--------|
------------------------------------------------------------------------------|
      to bend, to turn around / it makes more sense without the sound


------------------------------------------------------------------------------|
----0------0-0------0h1---1-----1-----1---------------------------------------|
------0--------0------------0-----0-----0-------------------------------------|
--------0--------0------------0-----0-----------------------------------------|
-------------2------2/3---3---------------------------------------------------|
----3------3------------------------------------------------------------------|
     it's everything my head cant hold
     questions i refuse to ask                    (play this x4)
     things i wish i'd done by now
     things that should have long since passed


---2-------3-----3------------------------------------------------------------|
-----0-------0-----0--1-----1----------0----0----------0-----0----------------|
-------0-------0--------0-----0---0------0----0----------0-----0---0----------|
---2----------------------0-----0---0------0----0----------0-----0---0--------|
----------------------3-------------------------------------------------------|
---------------------------------------3-----------2h3-3----------------------|
     and please dont leave right now, i couldnt bear it
     to live our seperate lives when we could share it    (play this x2)


------------------------------------------------------------------------------|
----0------0-0------0h1---1-----1-----1---------------------------------------|
------0--------0------------0-----0-----0-------------------------------------|
--------0--------0------------0-----0-----------------------------------------|
-------------2------2/3---3---------------------------------------------------|
----3------3------------------------------------------------------------------|
     and i know its never been like that
     but every time the lights go out          (play this x4)
     i hope you will finally see
     that things are gonna change but they wont right now


------------------------------------------------------------------------------|
-3-----3-3-----3-3-----3-3-------3--------------------------------------------|
---0-------0-------0---------0-----0---0--------------------------------------|
-----0-------0-------0-----0---0----------------------------------------------|
-3-------2-------0-------2----------0h2---------------------------------------|
------------------------------------------------------------------------------|


------------------------------------------------------------------------------|
-3-----3-3-----3-3-----3-3----------------------------------------------------|
---0-------0-------0----------------------------------------------------------|
-----0-------0-------0--------------------------------------------------------|
-3-------2-------0------------------------------------------------------------|
-------------------------3----------------------------------------------------|
Tap to rate this tab
# A B C D E F G H I J K L M N O P Q R S T U V W X Y Z