Song name
# A B C D E F G H I J K L M N O P Q R S T U V W X Y Z

Mumsdollar - Thomas tab

Song: Thomas
Artist: Mumsdollar
Album: Ruins

Hay, if I get round to it, i might tab the whole song, but yeah. We'll see...

Guitar 1
e|----------------------------|------------------------|
B|----------------------------|------------------------|
G|------11-----11-----11------|------------------------|
D|--8-9----8-9----8-9----8-9--|--9-11-13-9-11-13-9-11--|
A|----------------------------|------------------------|
E|----------------------------|------------------------|

Continued
e|---------------------|------------------------|
B|---------------------|------------------------|
G|------11-----11------|-------13------13-------|
D|--8-9----8-9----8-9--|--9-11----9-11----9-11--|
A|---------------------|------------------------|
E|---------------------|------------------------|

Continued
e|-------------------------------|--------------------------------------|
B|-------------------------------|--------------------------------------|
G|-------------------------------|--------------------------------------|
D|--5-5-5-6-6-6-8-8-8-8-8-8-8-8--|--5-5-5-6-6-6-8-8-8-8-8-8-9-9-8-8-6~--|
A|-------------------------------|--------------------------------------|
E|-------------------------------|--------------------------------------|

Guitar 2 (I can’t be bothered tabbing the strumming…)
e|--------------------|
B|--------------------|
G|-----------6--8-----|
D|--2--6--2--6--8--6--|
A|--2--6--2--4--6--6--|
E|--0--4--0--------4--|

Tap to rate this tab
# A B C D E F G H I J K L M N O P Q R S T U V W X Y Z