Song name
# A B C D E F G H I J K L M N O P Q R S T U V W X Y Z

Murder City Devils - Broken Glass tab

Help us improve GuitareTab! Take a short survey!
Tabbed by:
Email:

Tuning:

e|------------------------------------------------------|
B|------------------------------------------------------|
G|-7b(10)-----------5-5-5-5-----------------------------|
D|-------7-7-7-7----5-5-5-5----5-5-5-5----5-2-5-2-------|
A|-------7-7-7-7----3-3-3-3----5-5-5-5----5-2-5-2-------|
E|-------5-5-5-5---------------3-3-3-3----3-0-3-0-------|

OH! by the way, this is the organ part in the beginning

e|---------------------------------------------------------------|
B|---------------------------------------------------------------|
G|--2--2----5--5----4--4----0--0---------------------------------|
D|----2--2----2--2----2--2----2--2-------------------------------|
A|---------------------------------------------------------------|
E|---------------------------------------------------------------|


| /  slide up
| \  slide down
| h  hammer-on
| p  pull-off
| ~  vibrato
| +  harmonic
| x  Mute note
Related for Broken Glass tab