Song name
# A B C D E F G H I J K L M N O P Q R S T U V W X Y Z

Muse - Mk Ultra tab

My First tab btw :)

Muse - MK Ultra

E||-13----12-13----12-13-------13-------13-------13-------13-------13-------15-------15--------|
B||----10-------10-------10-11----10-11----10-11----10-13----10-13----10-13----10-13-----------|
G||--------------------------------------------------------------------------------------------|
D||--------------------------------------------------------------------------------------------|
A||--------------------------------------------------------------------------------------------|
E||--------------------------------------------------------------------------------------------|


E||-------17-------17-------18-------18-------17-------17-15-13-12-10-13-12-10-----------------|
B||-13-15----13-15----13-15----13-15----13-15----13-15-------------------------10--------------|
G||--------------------------------------------------------------------------------------------|
D||--------------------------------------------------------------------------------------------|
A||--------------------------------------------------------------------------------------------|
E||--------------------------------------------------------------------------------------------|
Tap to rate this tab
# A B C D E F G H I J K L M N O P Q R S T U V W X Y Z