Song name
# A B C D E F G H I J K L M N O P Q R S T U V W X Y Z

Muse - Unnatural Selection tab

-----------------------------------------------------------------
Unnatural Selection - Muse
-----------------------------------------------------------------
Tuning: Drop D

Intro
e|--------------------------------------------------------|
B|--------------------------------------------------------|
G|--------------------------------------------------------|
D|--------------------------------------------------------|
A|--------------------------------------------------8---8-|
D|5-5-5-5-5-5-5-5-5-5-5-5-5-5-5-5-5-5-5-5-5-5-5-5-5---5---|

e|-----------------------------------------------|
B|-----------------------------------------------|
G|-----------------------------------------------|
D|-----------------------------------------------|
A|------------------------6---6------------------|
D|5-5-5-5-5-5-5-5-5-5-5-5---5---5-5-5-5-5-5-5-5--|

e|-------------------|
B|-------------------|
G|-------------------|
D|-------3-4-----4-5-|
A|-------------------|
D|-3-0-3-----0-4-----|

Verse
e|------------------------------------------------------------------------|
B|------------------------------------------------------------------------|
G|------------------------------------------------------------------------|
D|------------------------------------------------------3-----3-4-----4-5-|
A|------------------------------------------------------------------------|
D|-5-5-5-5-5-5-5-5-8-5-8-9-10-8-10-11-11-12-0-0-0-0-0-0---0-3-----0-4-----|

E|----------------------------------------------------------------------|
B|-----------------------------3-3-6-6--4-4-4-4-4-4-4-4-4-4-4-4-4-4-4-4-|
G|----3-3-3-3-2-2-2-2-3-3-5-5---------------------------2-2-2-2-2-2-2-2-|
D|----------------------------------------------------------------------|
A|----------------------------------------------------------------------|
D|----------------------------------------------------------------------|

E|------------------------------------------------------------------|
B|-3-3-3-3-1-1-1-1-3-3-1-1------------------------------------------|
G|--------------------------3-3-2-2-3-3-3-3-3-3-3-3-2-2-2-2-2-2-2-2-|
D|------------------------------------------------------------------|
A|------------------------------------------------------------------|
D|------------------------------------------------------------------|

e|---------------------------------|
B|---------------------------------|
G|-3---3---3---3---2---2---2---2---|
D|---0---0---0---0---0---0---0---0-|
A|---------------------------------|
D|---------------------------------|

Chorus
E|---------------------------|
B|-------------4------4------|
G|-------------5------3------|
D|-5--5--------5------5------|
A|-5--5-(14x)--3-(8x)-3-(8x)-|
D|-5--5----------------------|

E|---------------------------|
B|---------------------------|
G|-------------3------2------|
D|-3--3--------3------3------|
A|-3--3-(14x)--1-(8x)-1-(8x)-|
D|-3--3----------------------|

E|-------------------------------------|
B|-------------------------------------|
G|-------------------------------------|
D|-1--------2--------3--------4------5-|
A|-x--------x--------x--------x------x-|
D|-1-(8x)---2-(8x)---3-(8x)---4-(8x)-5-|

e|---------------------|
B|---------------------|
G|------------------3/-|
D|-1-1-1-1-3-3-3-3--3/-|
A|------------------1/-|
E|-1-1-1-1-3-3-3-3-----|

Bridge
e|-----------------------------------|
B|---------------------------------8-|
G|--------------------------7----7---|
D|-----------------------------------|
A|-----------------------------------|
D|-5~~~~~~~~-------------------------|

-----------------|---------------|---------------|---------------|
-----------------|---------------|---------------|---------------|
--x--x-----------|---------------|---------------|---------------|
--x--x-----------|---------------|---------------|---------------|
--x--x-----------|---------------|--5------------|---------------|
-----------------|--5------------|---------------|--1------------|


---------------|---------------|----------------------|-------------------|
---------------|---------------|----------------------|-------------------|
---------------|---------------|----------------------|-------------------|
---------------|---------------|----------------------|-------------------|
--3------------|--5------------|--12--12br------------|--------10--9------|
---------------|---------------|----------------------|-------------------|


-----------------|---------------|---------------|---------------|
-----------------|---------------|---------------|---------------|
-----------------|---------------|---------------|---------------|
-----------------|---------------|---------------|---------------|
--15b------------|---------------|--5------------|---------------|
-----------------|--5------------|---------------|--1------------|


---------------|---------------|----------------------|-------------------|
---------------|---------------|----------------------|-------------------|
---------------|---------------|----------------------|-------------------|
---------------|---------------|----------------------|-------------------|
--3------------|--5------------|--12--12br------------|--------10--9------|
---------------|---------------|----------------------|-------------------|

-----------------|---------------|---------------|---------------|
-----------------|---------------|---------------|---------------|
-----------------|---------------|---------------|---------------|
-----------------|---------------|---------------|---------------|
--15b------------|---------------|---------------|---------------|
-----------------|---------------|---------------|---------------|


---------------|---------------|---------------|-----------------|
---------------|---------------|---------------|-----------------|
---------------|---------------|---------------|--12b------------|
---------------|---------------|---------------|-----------------|
---------------|---------------|---------------|-----------------|
---------------|---------------|---------------|-----------------|

----------------|-----------------|-----------------------|-----------------|
----------------|-----------------|-----------------------|-----------------|
--12------------|--12\------------|-----------------------|-----------------|
----------------|-----------------|-----------15--17--15--|--20b------------|
----------------|-----------------|-----------------------|-----------------|
----------------|-----------------|-----------------------|-----------------|

------------------------|--------------------|-----------------|
------------------------|--------------------|-----------------|
------------------------|--------------------|-----------------|
--20b----20--20b----20--|--20br------19------|--19s------------|
------------------------|--------------------|-----------------|
------------------------|--------------------|-----------------|

------------------------|--------------------------------------|
------------------------|--------------------------------------|
--------12------12------|--12------12-----12----12----12----12-|
--12--------12------12--|------12------12----12----12----12----|
------------------------|--------------------------------------|
------------------------|--------------------------------------|

--------------------------------------|
--------------------------------------|
-----12----12----12----12----12----12-|
--13----13----13----13----13----13----|
--------------------------------------|
--------------------------------------|

--------------------------------------|
--------------------------------------|
-----14----14----14----14----14----14-|
--13----13----13----13----13----13----|
--------------------------------------|
--------------------------------------|

----------------------------------------|
----------------------------------------|
-----15----15-15-15-15-15-15-15-15b-15b-|
--12----12-12-12-12-12-12-12-12-12b-12b-|
----------------------------------------|
----------------------------------------|


--------------------------------------------------|------------------------|
--------------------------------------------------|------------------------|
--15b-15b-15b-15b-15b-15b-15b-15b-15b-15b-15b-15b-|--15--12--14------------|
--12--12--12--12--12--12--12--12--12--12--12--12--|------------------------|
--------------------------------------------------|------------------------|
--------------------------------------------------|------------------------|


------------------|---------------|---------------|---------------|
------------------|---------------|---------------|---------------|
--17b-------------|---------------|---------------|---------------|
------------------|---------------|---------------|---------------|
------------------|---------------|--5------------|---------------|
------------------|--5------------|---------------|--1------------|


---------------|---------------|----------------------|-------------------|
---------------|---------------|----------------------|-------------------|
---------------|---------------|----------------------|-------------------|
---------------|---------------|----------------------|-------------------|
--3------------|--5------------|--12--12br------------|--------10--9------|
---------------|---------------|----------------------|-------------------|


-----------------|---------------|---------------|---------------|
-----------------|---------------|---------------|---------------|
-----------------|---------------|---------------|---------------|
-----------------|---------------|---------------|---------------|
--15b------------|---------------|--5------------|---------------|
-----------------|--5------------|---------------|--1------------|


---------------|---------------|----------------------|-------------------|
---------------|---------------|----------------------|-------------------|
---------------|---------------|----------------------|-------------------|
---------------|---------------|----------------------|-------------------|
--3------------|--5------------|--12--12br------------|--------10--9------|
---------------|---------------|----------------------|-------------------|

-----------------|---------------|---------------|
-----------------|---------------|---------------|
-----------------|---------------|---------------|
-----------------|---------------|---------------|
--15b------------|---------------|---------------|
-----------------|---------------|---------------|

It ends with
E|--------------------------|
B|--------------------------|
G|--------------------------|
D|--------8--------7-----7--|
A|--------8--------7-----7--|
D|--5--5--5--5--5--5--5--5--|


--------------------------|--------------------------|
--------------------------|--------------------------|
--------------------------|--------------------------|
--------6--------5-----5--|--------8--------7-----7--|
--------6--------5-----5--|--------8--------7-----7--|
--5--5--5--5--5--5--5--5--|--5--5--5--5--5--5--5--5--|

--------------------------|--------------------------|
--------------------------|--------------------------|
--------------------------|--------------------------|
--------6--------5-----5--|--------8--------7-----7--|
--------6--------5-----5--|--------8--------7-----7--|
--5--5--5--5--5--5--5--5--|--5--5--5--5--5--5--5--5--|

--------------------------|--------------------------|
--------------------------|--------------------------|
--------------------------|--------------------------|
--------6--------5-----5--|--------8--------7-----7--|
--------6--------5-----5--|--------8--------7-----7--|
--5--5--5--5--5--5--5--5--|--5--5--5--5--5--5--5--5--|

--------------------------|--------------------------|
--------------------------|--------------------------|
--------------------------|--------------------------|
--------6--------5-----5--|--------8--------7-----7--|
--------6--------5-----5--|--------8--------7-----7--|
--5--5--5--5--5--5--5--5--|--5--5--5--5--5--5--5--5--|

--------------------------|--------------------------|
--------------------------|--------------------------|
--------------------------|--------------------------|
--------6--------5-----5--|--------8--------7-----7--|
--------6--------5-----5--|--------8--------7-----7--|
--5--5--5--5--5--5--5--5--|--5--5--5--5--5--5--5--5--|

--------------------------|--------------------------|
--------------------------|--------------------------|
--------------------------|--------------------------|
--------6--------5-----5--|--------8--------7-----7--|
--------6--------5-----5--|--------8--------7-----7--|
--5--5--5--5--5--5--5--5--|--5--5--5--5--5--5--5--5--|

--------------------------|--------------------------|
--------------------------|--------------------------|
--------------------------|--------------------------|
--------6--------5-----5--|--------8--------7-----7--|
--------6--------5-----5--|--------8--------7-----7--|
--5--5--5--5--5--5--5--5--|--5--5--5--5--5--5--5--5--|

--------------------------|
--------------------------|
--------------------------|
--------6--------5-----5--|
--------6--------5-----5--|
--5--5--5--5--5--5--5--5--|
Tap to rate this tab
# A B C D E F G H I J K L M N O P Q R S T U V W X Y Z